Oops, an error
Loading. Please wait.

Awake Tab

ver2
ver2

Album

Solo

Whole song

More versions @911Tabs.com
2,905 views 3 this week
1 commentread comment
1 2 3 4 5
please rate
Autoscroll
+/-
esc
set tempo
stop
Contributor
WARNING: You are trying to view
                                    content from Ultimate-Guitar.com
                                    in an unauthorized application,
                                    which is prohibited.

                                    Please use an official Ultimate
                                    Guitar Tabs application for iPhone,
                                    iPad or Android to access legitimate
                                    chords, guitar, bass, and drum tabs
                                    from Ultimate-Guitar.com database.

                                    Type "ultimate guitar tabs" in Apple
                                    App Store's or Android Market's
                                    search to find the application.
Awake(album)
------------

1. Sick Of Life
2. Awake
3. Greed
4. Mistakes
5. Forgive Me
6. Vampires
7. The Journey
8. Spiral


1.Sick Of Life
----------------

drop C (C G C F A D)


Intro     gtr 1
|-------------------------------|
|-------------------------------|
|-------------------------------| 2x
|3p0-0-0-5p0-0-8p0-0-0-3p0-0-0--|
|-------------------------------|
|-------------------------------|

           gtr 2
|-------------------------------|
|-------------------------------|
|-------------------------------| 2x
|-------------------------------|
|-------------------------------|
|3p0-0-0-5p0-0-8p0-0-0-3p0-0-0--|


gtrs 1 & 2
|-------------------------------|-------------------|
|-------------------------------|-------------------|
|-------------------------------|-------------------|
|-------------------------------|-------------------|
|3p0-0-0-5p0-0-8p0-0-0-3p0-0-0--|3p0-0-0-5p0-0-8p0--|
|3p0-0-0-5p0-0-8p0-0-0-3p0-0-0--|3p0-0-0-5p0-0-8p0--|

|-------------------------------|     |------------------------------|
|-------------------------------|     |------------------------------|
|-------------------------------| 3x  |-------------------[5-5-5-5]--|
|-------------------------------|     |------------------------------|
|3p0-0-0-5p0-0-8p0-0-0-3p0-0-0--|     |3p0-0-0-5p0-0-8p0-------------|
|3p0-0-0-5p0-0-8p0-0-0-3p0-0-0--|     |3p0-0-0-5p0-0-8p0-------------|

|-------------------------------|
|-------------------------------|
|-------------------------------| 4x
|-------------------------------|
|3p0-0-0-5p0-0-8p0-0-0-3p0-0-0--|
|3p0-0-0-5p0-0-8p0-0-0-3p0-0-0--|


Verse 1
|--------------------|--------------------------------|
|--------------------|--------------------------------|
|--------------------|--------------------------------|
|--------------------|--------------------------------| 2x
|3p0-0-0-3p0-0-5p0---|3p0-0-0-5p0-0-8p0-0-0-3p0-0-0---|
|3p0-0-0-3p0-0-5p0---|3p0-0-0-5p0-0-8p0-0-0-3p0-0-0---|
 PM---------------|   PM---------------------------|

|--------------------|--------------------------------|
|8-8-8-8-------------|8-8-8-8-------------------------|
|8-8-8-8-------------|8-8-8-8-------------------------| 2x
|8-8-8-8-------------|8-8-8-8-------------------------| 
|6-6-6-6-3p0-0-------|6-6-6-6-3p0-0-0-8p0-0-0-3p0-0-0-|
|--------3p0-0-------|--------3p0-0-0-8p0-0-0-3p0-0-0-|
         PM---|               PM---------------------|

Pre-Chorus 1
|---------------------------|
|---------------------------|
|---------------------------|
|---------------------------| 4x
|0-5-5/6-6/8-8\6-6-6\5-5-5--|
|0-5-5/6-6/8-8\6-6-6\5-5-5--|


Chorus 1
|-------------------------------|
|-------------------------------|
|-------------------------------| 4x
|-------------------------------|
|3p0-0-0-5p0-0-8p0-0-0-3p0-0-0--|
|3p0-0-0-5p0-0-8p0-0-0-3p0-0-0--|


Verse 2
|--------------------|--------------------------------|
|--------------------|--------------------------------|
|--------------------|--------------------------------|
|--------------------|--------------------------------| 2x
|3p0-0-0-3p0-0-5p0---|3p0-0-0-5p0-0-8p0-0-0-3p0-0-0---|
|3p0-0-0-3p0-0-5p0---|3p0-0-0-5p0-0-8p0-0-0-3p0-0-0---|
 PM---------------|   PM---------------------------|

|--------------------|--------------------------------|
|8-8-8-8-------------|8-8-8-8-------------------------|
|8-8-8-8-------------|8-8-8-8-------------------------| 2x
|8-8-8-8-------------|8-8-8-8-------------------------| 
|6-6-6-6-3p0-0-------|6-6-6-6-3p0-0-0-8p0-0-0-3p0-0-0-|
|--------3p0-0-------|--------3p0-0-0-8p0-0-0-3p0-0-0-|
         PM---|               PM---------------------|

Pre-Chorus 2
|---------------------------|
|---------------------------|
|---------------------------|
|---------------------------| 4x
|0-5-5/6-6/8-8\6-6-6\5-5-5--|
|0-5-5/6-6/8-8\6-6-6\5-5-5--|

Chorus 2
|-------------------------------|     |------------------------------|
|-------------------------------|     |------------------------------|
|-------------------------------| 3x  |-------------------[5-5-5-5]--|
|-------------------------------|     |------------------------------|
|3p0-0-0-5p0-0-8p0-0-0-3p0-0-0--|     |3p0-0-0-5p0-0-8p0-------------|
|3p0-0-0-5p0-0-8p0-0-0-3p0-0-0--|     |3p0-0-0-5p0-0-8p0-------------|

|-------------------------------|
|-------------------------------|
|-------------------------------| 4x
|-------------------------------|
|3p0-0-0-5p0-0-8p0-0-0-3p0-0-0--|
|3p0-0-0-5p0-0-8p0-0-0-3p0-0-0--|

Interlude  gtr 1        gtr 1
|--------------|     |-------------------------|
|--------------|     |-------------------------|
|8-8-8-8-------| 5x  |8-8-8-8-8-8-8-8-8-8-8-8--| some number
|7-7-7-7-------|     |-------------------------| of times
|6-6-6-6-------|     |6-6-6-6-6-6-6-6-6-6-6-6--|
|--------------|     |-------------------------|

gtr 2                   gtr 2
|--------------|     |-------------------------|
|--------------|     |-------------------------|
|8-8-8-8-------|     |8-8-8-8-8-8-8-8-8-8-8-8--| some number
|7-7-7-7-------| 6x  |7-7-7-7-7-7-7-7-7-7-7-7--| of times
|6-6-6-6-------|     |6-6-6-6-6-6-6-6-6-6-6-6--|
|--------------|     |-------------------------|


Rythm
|---------------------------|
|---------------------------|
|---------------------------|
|---------------------------| 4x
|0-5-5/6-6/8-8\6-6-6\5-5-5--|
|0-5-5/6-6/8-8\6-6-6\5-5-5--|

|-------------------------------|
|-------------------------------|
|-------------------------------| 4x
|-------------------------------|
|3p0-0-0-5p0-0-8p0-0-0-3p0-0-0--|
|3p0-0-0-5p0-0-8p0-0-0-3p0-0-0--|


Chorus 3
|-------------------------------|     |------------------------------|
|-------------------------------|     |------------------------------|
|-------------------------------| 3x  |-------------------[5-5-5-5]--|
|-------------------------------|     |------------------------------|
|3p0-0-0-5p0-0-8p0-0-0-3p0-0-0--|     |3p0-0-0-5p0-0-8p0-------------|
|3p0-0-0-5p0-0-8p0-0-0-3p0-0-0--|     |3p0-0-0-5p0-0-8p0-------------|

|-------------------------------|
|-------------------------------|
|-------------------------------| 4x
|-------------------------------|
|3p0-0-0-5p0-0-8p0-0-0-3p0-0-0--|
|3p0-0-0-5p0-0-8p0-0-0-3p0-0-0--|


Outro
|--------------------|--------------------------------|
|--------------------|--------------------------------|
|--------------------|--------------------------------|
|--------------------|--------------------------------|
|3p0-0-0-3p0-0-5p0---|3p0-0-0-5p0-0-8p0-0-0-3p0-0-0---|
|3p0-0-0-3p0-0-5p0---|3p0-0-0-5p0-0-8p0-0-0-3p0-0-0---|
 PM---------------|   PM---------------------------|


PM    palm mute
/     slide up
\     slide down
[]    natrual harmonics
p     pull off



2.Awake
---------

drop C (C G C F A D)



Intro  gtrs 1 & 2
|-------------------|---------------|
|--3------3-----3---|---------------|
|--2------2-----2---|-3-------------| 2x
|--0------0-----0---|-3---1--1---0--|
|--0------0-----0---|-1---1--1---0--|
|--0------0-----0---|-----1--1---0--|

gtr 1
|-------------------|---------------|
|--3------3-----3---|---------------|
|--2------2-----2---|-3-------------| 2x
|--0------0-----0---|-3---1--1---0--|
|--0------0-----0---|-1---1--1---0--|
|--0------0-----0---|-----1--1---0--|

gtr 2
|----------------------------|-------------------------|
|----------------------------|-------------------------|
|7--7-7-7-7-7--7-7-7-7-7-7---|3--3-3-3-8--8-8-8-8-8-8--|
|----------------------------|-------------------------|
|5--5-5-5-5-5--5-5-5-5-5-5---|1--1-1-1-6--6-6-6-6-6-6--|
|----------------------------|-------------------------|

|----------------------------|-------------------------|
|----------------------------|-------------------------|
|7--7-7-7-7-7--7-7-7-7-7-7---|3--3-3-3-8--8-8-8--------|
|----------------------------|-------------------------|
|5--5-5-5-5-5--5-5-5-5-5-5---|1--1-1-1-6--6-6-6--------|
|----------------------------|-------------------12\---|

gtrs 1 & 2
|------------|------------|------------|--------------|
|------------|------------|------------|--------------|
|------------|------------|------------|----------[5]-|
|-0--0--0-0--|-0--0--0-0--|-0--0--0-0--|----------[5]-|
|-0--0--0-0--|-0--0--0-0--|-0--0--0-0--|-0--0--0------|
|-0--0--0-0--|-0--0--0-0--|-0--0--0-0--|-0--0--0------|
  PM--------------------------------------------|

gtrs 1 & 2
|------------------------------|     |----------------------------------|
|------------------------------|     |----------------------------------|
|-----------7---7--8--8--8--8--|     |-----------7--7---10--10--10--10--|
|------------------------------| 3x  |----------------------------------|
|0--0--0-0--5---5--6--6--6--6--|     |0--0--0-0--5--5----8---8---8---8--|
|0--0--0-0---------------------|     |0--0--0-0-------------------------|

|------------------------------|     |---------|
|------------------------------|     |---------|
|-----------7---7--8--8--8--8--|     |--10-----|
|------------------------------| 3x  |---9-----|
|0--0--0-0--5---5--6--6--6--6--|     |---8-----|
|0--0--0-0---------------------|     |---------|


Verse 1 gtrs 1 & 2
|-------------|-------------|--------------|-----------------|
|-------------|-------------|--------------|-----------------|
|-------------|-------------|--------------|--3--------------|
|-0-------0---|-0-------0---|-0--------0---|--3----1---------| 2x
|-0-------0---|-0-------0---|-0--------0---|--1----1---------|
|-0-------0---|-0-------0---|-0--------0---|-------1---------|

wait another minute
can't you see what this pain has f*****g done to me
i'm alive and still kicking
what you see i can't see and maybe you'll think before you speak


Chorus 1 gtrs 1 & 2
|-------------------|---------------|
|--3------3-----3---|---------------|
|--2------2-----2---|-3-------------| 2x
|--0------0-----0---|-3---1--1---0--|            
|--0------0-----0---|-1---1--1---0--|
|--0------0-----0---|-----1--1---0--|
                                               
gtr 1                                           
|-------------------|---------------|          
|--3------3-----3---|---------------|          
|--2------2-----2---|-3-------------| 2x
|--0------0-----0---|-3---1--1---0--|
|--0------0-----0---|-1---1--1---0--|
|--0------0-----0---|-----1--1---0--|

gtr 2
|----------------------------|-------------------------|
|----------------------------|-------------------------|
|7--7-7-7-7-7--7-7-7-7-7-7---|3--3-3-3-8--8-8-8-8-8-8--|
|----------------------------|-------------------------|
|5--5-5-5-5-5--5-5-5-5-5-5---|1--1-1-1-6--6-6-6-6-6-6--|
|----------------------------|-------------------------|

|----------------------------|-------------------------|
|----------------------------|-------------------------|
|7--7-7-7-7-7--7-7-7-7-7-7---|3--3-3-3-8--8-8-8--------|
|----------------------------|-------------------------|
|5--5-5-5-5-5--5-5-5-5-5-5---|1--1-1-1-6--6-6-6--------|
|----------------------------|-------------------------|

i'm alive for you
i'm awake because of you
i'm alive told you
i'm awake swallowing you


Interlude gtrs 1 & 2
|------------|------------|------------|--------------|
|------------|------------|------------|--------------|
|------------|------------|------------|----------[5]-|
|-0--0--0-0--|-0--0--0-0--|-0--0--0-0--|----------[5]-|
|-0--0--0-0--|-0--0--0-0--|-0--0--0-0--|-0--0--0------|
|-0--0--0-0--|-0--0--0-0--|-0--0--0-0--|-0--0--0------|
  PM--------------------------------------------|

gtrs 1 & 2
|------------------------------|     |----------------------------------|
|------------------------------|     |----------------------------------|
|-----------7---7--8--8--8--8--|     |-----------7--7---10--10--10--10--|
|------------------------------| 3x  |----------------------------------|
|0--0--0-0--5---5--6--6--6--6--|     |0--0--0-0--5--5----8---8---8---8--|
|0--0--0-0---------------------|     |0--0--0-0-------------------------|

|------------------------------|     |----------------|
|------------------------------|     |----------------|
|-----------7---7--8--8--8--8--|     |--10----10--10--|
|------------------------------| 3x  |---9-----9---9--|
|0--0--0-0--5---5--6--6--6--6--|     |---8-----8---8--|
|0--0--0-0---------------------|     |----------------|


Verse 2
|-------------|-------------|--------------|-----------------|
|-------------|-------------|--------------|-----------------|
|-------------|-------------|--------------|--3--------------|
|-0-------0---|-0-------0---|-0--------0---|--3----1---------| 2x
|-0-------0---|-0-------0---|-0--------0---|--1----1---------|
|-0-------0---|-0-------0---|-0--------0---|-------1---------|

take another second
turn your back on me and make believe that your always happy
its safe to say your never alive
a big part of you has died and by the way i hope your satisfied

Chorus 2 gtrs 1 & 2
|-------------------|---------------|
|--3------3-----3---|---------------|
|--2------2-----2---|-3-------------| 4x
|--0------0-----0---|-3---1--1---0--|            
|--0------0-----0---|-1---1--1---0--|
|--0------0-----0---|-----1--1---0--|
                                               
gtr 1                                           
|-------------------|---------------|          
|--3------3-----3---|---------------|          
|--2------2-----2---|-3-------------| 3x
|--0------0-----0---|-3---1--1---0--|
|--0------0-----0---|-1---1--1---0--|
|--0------0-----0---|-----1--1---0--|

gtr 2
|----------------------------|-------------------------|
|----------------------------|-------------------------|
|7--7-7-7-7-7--7-7-7-7-7-7---|3--3-3-3-8--8-8-8-8-8-8--| 2x
|----------------------------|-------------------------|
|5--5-5-5-5-5--5-5-5-5-5-5---|1--1-1-1-6--6-6-6-6-6-6--|
|----------------------------|-------------------------|

|----------------------------|-------------------------|
|----------------------------|-------------------------|
|7--7-7-7-7-7--7-7-7-7-7-7---|3--3-3-3-8--8-8-8--------|
|----------------------------|-------------------------|
|5--5-5-5-5-5--5-5-5-5-5-5---|1--1-1-1-6--6-6-6--------|
|----------------------------|-------------------------|
 
i'm alive for you
i'm awake because of you
i'm alive told you
i'm awake swallowing you
i'm alive for you
i'm awake because of you
i'm alive told you
i'm awake

Interlude  gtr 1
|-------------------------|
|-------------------------|
|-------------------------|
|-------------------------| 2x
|-------------------------|
|0-0-0-0--0-0-0-0-0--0-0--|
 PM---------------------|

gtr 1 & 2
|-------------------------|
|-------------------------|
|-------------------------|
|-------------------------|
|-------------------------|
|0-0-0-0--0-0-0-0-0--0-0--|
 PM---------------------|

|-------------------------|
|-------------------------|
|-------------------------| 9x
|-------------------------| 
|0-0-0-0--0-0-0-0-0--0-0--|
|0-0-0-0--0-0-0-0-0--0-0--|
 PM---------------------|

Verse 3
|-------------------------|
|-------------------------|
|-------------------------| 
|-------------------------| 8x 
|0-0-0-0--0-0-0-0-0--0-0--|
|0-0-0-0--0-0-0-0-0--0-0--|
 PM---------------------|

tearing it back unveiling me
i'm taking a step back so i can breathe
hear the silence about to break 
fear resistence when i'm awake

|--------------------------|
|--------------------------|
|--------------------------|
|1--1--1--1--1--1---1-1----|
|1--1--1--1--1--1---1-1----|
|1--1--1--1--1--1---1-1----|

tearing it back unveiling me
i'm taking a step back so i can breathe

|-------------------------|
|-------------------------|
|-------------------------| 2x
|-------------------------| 
|0-0-0-0--0-0-0-0-0--0-0--|
|0-0-0-0--0-0-0-0-0--0-0--|
 PM---------------------|

|--------------------------|
|--------------------------|
|--------------------------|
|1--1--1--1--1--1---1-1----|
|1--1--1--1--1--1---1-1----|
|1--1--1--1--1--1---1-1----|

hear the silence about to break 
fear resistence when i'm awake

|-------------------------------|
|-------------------------------|
|-------------------------------|
|5-5-5-5-5-5-5-5-5-5-5-5-5-5-5--|
|5-5-5-5-5-5-5-5-5-5-5-5-5-5-5--|
|5-5-5-5-5-5-5-5-5-5-5-5-5-5-5--|
             PM-----------|
oh yeah

(sorry but i dunno the solo)

Interlude  gtr 1
|-------------------------|
|-------------------------|
|-------------------------|
|-------------------------| 2x
|-------------------------|
|0-0-0-0--0-0-0-0-0--0-0--|
 PM---------------------|

gtr 1 & 2
|-------------------------|-----------|
|-------------------------|-----------|
|-------------------------|---[5]-----|
|-------------------------|---[5]-----|
|-------------------------|-----------|
|0-0-0-0--0-0-0-0-0--0-0--|-----------|
 PM---------------------|

Rythm
|-------------------------|
|-------------------------|
|-------------------------| 
|-------------------------| 8x 
|0-0-0-0--0-0-0-0-0--0-0--|
|0-0-0-0--0-0-0-0-0--0-0--|
 PM---------------------|

|--------------------------|
|--------------------------|
|--------------------------|
|1--1--1--1--1--1---1-1----|
|1--1--1--1--1--1---1-1----|
|1--1--1--1--1--1---1-1----|

|-------------------------|
|-------------------------|
|-------------------------| 2x
|-------------------------| 
|0-0-0-0--0-0-0-0-0--0-0--|
|0-0-0-0--0-0-0-0-0--0-0--|
 PM---------------------|

|--------------------------|
|--------------------------|
|--------------------------|
|1--1--1--1--1--1---1-1----|
|1--1--1--1--1--1---1-1----|
|1--1--1--1--1--1---1-1----|

|-------------------------------|
|-------------------------------|
|-------------------------------|
|5-5-5-5-5-5-5-5-5-5-5-5-5-5-5--|
|5-5-5-5-5-5-5-5-5-5-5-5-5-5-5--|
|5-5-5-5-5-5-5-5-5-5-5-5-5-5-5--|
             PM-----------|

aaaaagh


Chorus 3 gtrs 1 & 2
|-------------------|---------------|
|--3------3-----3---|---------------|
|--2------2-----2---|-3-------------| 4x
|--0------0-----0---|-3---1--1---0--|            
|--0------0-----0---|-1---1--1---0--|
|--0------0-----0---|-----1--1---0--|
                                               
gtr 1                                           
|-------------------|---------------|          
|--3------3-----3---|---------------|          
|--2------2-----2---|-3-------------| 4x
|--0------0-----0---|-3---1--1---0--|
|--0------0-----0---|-1---1--1---0--|
|--0------0-----0---|-----1--1---0--|

gtr 2
|----------------------------|-------------------------|
|----------------------------|-------------------------|
|7--7-7-7-7-7--7-7-7-7-7-7---|3--3-3-3-8--8-8-8-8-8-8--|
|----------------------------|-------------------------| 3x
|5--5-5-5-5-5--5-5-5-5-5-5---|1--1-1-1-6--6-6-6-6-6-6--|
|----------------------------|-------------------------|

|----------------------------|-------------------------|
|----------------------------|-------------------------|
|7--7-7-7-7-7--7-7-7-7-7-7---|3--3-3-3-8--8-8-8--------|
|----------------------------|-------------------------|
|5--5-5-5-5-5--5-5-5-5-5-5---|1--1-1-1-6--6-6-6--------|
|----------------------------|-------------------------|
 
i'm alive for you
i'm awake because of you
i'm alive told you
i'm awake swallowing you
i'm alive for you
i'm awake because of you
i'm alive told you
i'm awake swallowing you


outro
|-------------------------|
|-------------------------|
|-------------------------| 
|-------------------------| 4x 
|0-0-0-0--0-0-0-0-0--0-0--|
|0-0-0-0--0-0-0-0-0--0-0--|
 PM---------------------|


\    slide
[]   natrual harmonic
PM   palm mute



3.Greed
---------

drop C (C G C F A D)


Intro
|-----------------------------------|    |-----------------------------|
|-----------------------------------|    |-----------------------------|
|-----------------------------------|    |-----------------------------|
|-----------------------------------| 3x |-----------------------------|
|0--3-0-0--3-0-0-0-0-0-3-0-0-5/6-6--|    |0--3-0-0--3-0-0-0-0-0-3-0-0--|
|0--3-0-0--3-0-0-0-0-0-3-0-0-5/6-6--|    |0--3-0-0--3-0-0-0-0-0-3-0-0--|
 PM-------------------------|             PM-------------------------|

Verse 1
|-----------------------------------|    |-----------------------------|
|-----------------------------------|    |-----------------------------|
|-----------------------------------|    |-----------------------------|
|-----------------------------------| 3x |-----------------------------|
|0--3-0-0--3-0-0-0-0-0-3-0-0-5/6-6--|    |0--3-0-0--3-0-0-0-0-0-3-0-0--|
|0--3-0-0--3-0-0-0-0-0-3-0-0-5/6-6--|    |0--3-0-0--3-0-0-0-0-0-3-0-0--|
 PM-------------------------|             PM-------------------------|

Chorus 1
|---------------------|     |------------------|
|---------------------|     |------------------|
|----5/7-7-7-5-5-5-8--|     |-5-5-5-5-5-5-5-8--|
|0---5/7-7-7-5-5-5-8--| 3x  |-5-5-5-5-5-5-5-8--|
|0---3/5-5-5-3-3-3-6--|     |-3-3-3-3-3-3-3-6--|
|0--------------------|     |------------------|

|---------------------|     |------------------|
|---------------------|     |------------------|
|----5/7-7-7-5-5-5-8--|     |-5-5-5-5----------|
|0---5/7-7-7-5-5-5-8--| 3x  |-5-5-5-5----------|
|0---3/5-5-5-3-3-3-6--|     |-3-3-3-3-3-3-3-1--|
|0--------------------|     |---------3-3-3-1--|


Interlude
|-----------------------------------|
|-----------------------------------|
|-----------------------------------|
|-----------------------------------| 2x
|0--3-0-0--3-0-0-0-0-0-3-0-0-5/6-6--|
|0--3-0-0--3-0-0-0-0-0-3-0-0-5/6-6--|
 PM-------------------------|

Verse 2
|-----------------------------------|
|-----------------------------------|
|-----------------------------------|
|-----------------------------------| 4x
|0--3-0-0--3-0-0-0-0-0-3-0-0-5/6-6--|
|0--3-0-0--3-0-0-0-0-0-3-0-0-5/6-6--|
 PM-------------------------|

Chorus 2
|---------------------|     |------------------|
|---------------------|     |------------------|
|----5/7-7-7-5-5-5-8--|     |-5-5-5-5-5-5-5-8--|
|0---5/7-7-7-5-5-5-8--| 3x  |-5-5-5-5-5-5-5-8--|
|0---3/5-5-5-3-3-3-6--|     |-3-3-3-3-3-3-3-6--|
|0--------------------|     |------------------|


|---------------------|     |------------------|
|---------------------|     |------------------|
|----5/7-7-7-5-5-5-8--|     |-5-5-5-5----------|
|0---5/7-7-7-5-5-5-8--| 3x  |-5-5-5-5----------|
|0---3/5-5-5-3-3-3-6--|     |-3-3-3-3-3-3-3-1--|
|0--------------------|     |---------3-3-3-1--|

|---------------------|     |------------------|
|---------------------|     |------------------|
|----5/7-7-7-5-5-5-8--|     |-5-5-5-5-5-5-5-8--|
|0---5/7-7-7-5-5-5-8--| 3x  |-5-5-5-5-5-5-5-8--|
|0---3/5-5-5-3-3-3-6--|     |-3-3-3-3-3-3-3-6--|
|0--------------------|     |------------------|

|---------------------|     |------------------|
|---------------------|     |------------------|
|----5/7-7-7-5-5-5-8--|     |-5-5-5-5----------|
|0---5/7-7-7-5-5-5-8--| 3x  |-5-5-5-5----------|
|0---3/5-5-5-3-3-3-6--|     |-3-3-3-3-3-3-3-1--|
|0--------------------|     |---------3-3-3-1--|

Interlude
|--------------|     |-------------|--------------------|
|--------------|     |-------------|--------------------|
|--------------| 2x  |-------------|---------------8----|
|0----6-6-6-3--|     |0----6-6-6---|0--0--0--0-0-0-7----|
|0----6-6-6-3--|     |0----6-6-6---|0--0--0--0-0-0-6----|
|0----6-6-6-3--|     |0----6-6-6---|0--0--0--0-0-0------|

Rythm
|-----------------------------------|
|-----------------------------------|
|-----------------------------------|
|-----------------------------------| 4x
|0--3-0-0--3-0-0-0-0-0-3-0-0-5/6-6--|
|0--3-0-0--3-0-0-0-0-0-3-0-0-5/6-6--|
 PM-------------------------|

Chorus 3
|---------------------|     |------------------|
|---------------------|     |------------------|
|----5/7-7-7-5-5-5-8--|     |-5-5-5-5-5-5-5-8--|
|0---5/7-7-7-5-5-5-8--| 3x  |-5-5-5-5-5-5-5-8--|
|0---3/5-5-5-3-3-3-6--|     |-3-3-3-3-3-3-3-6--|
|0--------------------|     |------------------|

|---------------------|     |------------------|
|---------------------|     |------------------|
|----5/7-7-7-5-5-5-8--|     |-5-5-5-5----------|
|0---5/7-7-7-5-5-5-8--| 3x  |-5-5-5-5----------|
|0---3/5-5-5-3-3-3-6--|     |-3-3-3-3-3-3-3-1--|
|0--------------------|     |---------3-3-3-1--|

|---------------------|     |------------------|
|---------------------|     |------------------|
|----5/7-7-7-5-5-5-8--|     |-5-5-5-5-5-5-5-8--|
|0---5/7-7-7-5-5-5-8--| 3x  |-5-5-5-5-5-5-5-8--|
|0---3/5-5-5-3-3-3-6--|     |-3-3-3-3-3-3-3-6--|
|0--------------------|     |------------------|

|---------------------|     |------------------|
|---------------------|     |------------------|
|----5/7-7-7-5-5-5-8--|     |-5-5-5-5----------|
|0---5/7-7-7-5-5-5-8--| 3x  |-5-5-5-5----------|
|0---3/5-5-5-3-3-3-6--|     |-3-3-3-3-3-3-3-1--|
|0--------------------|     |---------3-3-3-1--|

Outro
|-----------------------------------|  |-----------------------------|
|-----------------------------------|  |-----------------------------|
|-----------------------------------|  |-----------------------------|
|-----------------------------------|  |-----------------------------|
|0--3-0-0--3-0-0-0-0-0-3-0-0-5/6-6--|  |0--3-0-0--3-0-0-0-0-0-3-0-0--|
|0--3-0-0--3-0-0-0-0-0-3-0-0-5/6-6--|  |0--3-0-0--3-0-0-0-0-0-3-0-0--|
 PM-------------------------|           PM-------------------------|



PM    palm mute
/     slide up




4.Mistakes
-----------

drop C (C G C F A D)

Intro
|------------------------|------------------------|------------------------|
|------------------------|------------------------|------------------------|
|------------------------|------------------------|------------------------|
|------------------------|----------------------0-|------------------------|
|----------------------0-|----------------------0-|----------------------0-|
|15-0-13-0-10-12-13-12-0-|15-0-13-0-10-12-13-12-0-|15-0-13-0-10-12-13-12-0-|
 PM---------------------| PM---------------------| PM---------------------|

|----------------------|-------------------| ---
|----------------------|-------------------|  |
|----------------------|-------------------|  |
|----------------------|-------------------|  |
|----------------------|-------------------|  |
|15-0-13-0-10-12-13-12-|0-15-0-13-12-10-12-|  |
                                              |
|----------------------|-------------------|  4x
|----------------------|-------------------|  |
|----------------------|-------------------|  |
|----------------------|-------------------|  |
|----------------------|-------------------|  |
|15-0-13-0-10-12-13-12-|0-15-0-13-12-10----| ---    

|---------|
|---------|
|---------|
|--5------|
|--5------|
|--5------|

heeee

|----------------------|-------------------| ---
|----------------------|-------------------|  |
|----------------------|-------------------|  |
|----------------------|-------------------|  |
|15-0-13-0-10-12-13-12-|0-15-0-13-12-10-12-|  |
|15-0-13-0-10-12-13-12-|0-15-0-13-12-10-12-|  |
                                              |
|----------------------|-------------------|  2x
|----------------------|-------------------|  |
|----------------------|-------------------|  |
|----------------------|-------------------|  |
|15-0-13-0-10-12-13-12-|0-15-0-13-12-10----|  |
|15-0-13-0-10-12-13-12-|0-15-0-13-12-10----| --- 


Verse 1
|----------|---------|---------------|     |---------|
|----------|---------|---------------|     |---------|
|----------|---------|---------------|     |---------|
|-------0--|------0--|------5-5-3-3--| 4x  |---------|
|0-0-0--0--|-0-0--0--|-0-0--3-3-1-1--|     |--3------|
|0-0-0--0--|-0-0--0--|-0-0-----------|     |--3------|
 PM---|      PM-|      PM-|

Interlude
|----------------------|-------------------|
|----------------------|-------------------|
|----------------------|-------------------|
|----------------------|-------------------|
|----------------------|-------------------|
|15-0-13-0-10-12-13-12-|0-15-0-13-12-10-12-|
                                           
|----------------------|-------------------|
|----------------------|-------------------|
|----------------------|-------------------|
|----------------------|-------------------|
|----------------------|-------------------|
|15-0-13-0-10-12-13-12-|0-15-0-13-12-10----|   

|----------------------|-------------------|
|----------------------|-------------------|
|----------------------|-------------------|
|----------------------|-------------------|
|15-0-13-0-10-12-13-12-|0-15-0-13-12-10-12-|
|15-0-13-0-10-12-13-12-|0-15-0-13-12-10-12-|
                                           
|----------------------|-------------------|
|----------------------|-------------------|
|----------------------|-------------------|
|----------------------|-------------------|
|15-0-13-0-10-12-13-12-|0-15-0-13-12-10----|
|15-0-13-0-10-12-13-12-|0-15-0-13-12-10----|

Verse 2
|----------|---------|---------------|
|----------|---------|---------------|
|----------|---------|---------------|
|-------0--|------0--|------5-5-3-3--| 8x
|0-0-0--0--|-0-0--0--|-0-0--3-3-1-1--|
|0-0-0--0--|-0-0--0--|-0-0-----------|
 PM---|      PM-|      PM-|

|------------------------------------|
|------------------------------------|
|------------------------------------|
|------------------------------------| 2x
|5-5-5-5-5-5-5-5-5-6-6-3-0-----------|
|5-5-5-5-5-5-5-5-5-6-6-3-0-----------|

Interlude
|----------------------|-------------------|
|----------------------|-------------------|
|----------------------|-------------------|
|----------------------|-------------------|
|----------------------|-------------------|
|15-0-13-0-10-12-13-12-|0-15-0-13-12-10-12-|
                                            
|----------------------|-------------------|
|----------------------|-------------------|
|----------------------|-------------------|
|----------------------|-------------------|
|----------------------|-------------------|
|15-0-13-0-10-12-13-12-|0-15-0-13-12-10----|

Verse 3
|------------------------------------|
|------------------------------------|
|------------------------------------|
|------------------------------------| 2x
|5-5-5-5-5-5-5-5-5-6-6-3-0-----------|
|5-5-5-5-5-5-5-5-5-6-6-3-0-----------|

Interlude
|----------------------|-------------------|
|----------------------|-------------------|
|----------------------|-------------------|
|----------------------|-------------------|
|----------------------|-------------------|
|15-0-13-0-10-12-13-12-|0-15-0-13-12-10-12-|
                                           
|----------------------|-------------------|
|----------------------|-------------------|
|----------------------|-------------------|
|----------------------|-------------------|
|----------------------|-------------------|
|15-0-13-0-10-12-13-12-|0-15-0-13-12-10----|

|----------------------|-------------------|
|----------------------|-------------------|
|----------------------|-------------------|
|----------------------|-------------------|
|15-0-13-0-10-12-13-12-|0-15-0-13-12-10-12-|
|15-0-13-0-10-12-13-12-|0-15-0-13-12-10-12-|
                                           
|----------------------|-------------------|
|----------------------|-------------------|
|----------------------|-------------------|
|----------------------|-------------------|
|15-0-13-0-10-12-13-12-|0-15-0-13-12-10----|
|15-0-13-0-10-12-13-12-|0-15-0-13-12-10----|

|-------------|---------------------------------|
|-------------|---------------------------------|
|-------------|---------------------------------|
|-1-----------|---------------------------------|
|-1-----------|1-1-1-1-1-1-1-1-1-1-1-1-1-1-1-1--|
|-1-----------|1-1-1-1-1-1-1-1-1-1-1-1-1-1-1-1--|
               PM-------------------|

|---------------------------------------|
|---------------------------------------|
|---------------------------------------|
|---------------------------------------| 2x
|---------------------------------------|
|12-0-0-13-0-0-12-0-0-13-0-0-12-0-10-0--|

|---------------------------------------|
|---------------------------------------|
|---------------------------------------|
|---------------------------------------| 2x
|---------------------------------------|
|12-0-0-13-0-0-12-0-0-13-0-0-12-0-10-0--|
 PM-----------------------------------|

|---------------------------------------|
|---------------------------------------|
|---------------------------------------|
|---------------------------------------| 2x
|---------------------------------------|
|12-0-0-13-0-0-12-0-0-13-0-0-12-0-10-0--|

|---------------------------------------------|
|---------------------------------------------|
|---------------------------------------------| 2x
|---------------------------------------------|
|12-0-0-0-13-0-0-0-12-0-0-0-13-0-0-12-0-10-0--|
|12-0-0-0-13-0-0-0-12-0-0-0-13-0-0-12-0-10-0--|
 PM-----------------------------------------|

|---------------------------------------|
|---------------------------------------|
|---------------------------------------|
|---------------------------------------|
|---------------------------------------|
|12-0-0-13-0-0-12-0-0-13-0-0-12-0-10-0--|

|---------------------------------------------|
|---------------------------------------------|
|---------------------------------------------|
|---------------------------------------------|
|12-0-0-0-13-0-0-0-12-0-0-0-13-0-0-12-0-10-0--|
|12-0-0-0-13-0-0-0-12-0-0-0-13-0-0-12-0-10-0--|
 PM-----------------------------------------|

|---------------------------------------|
|---------------------------------------|
|---------------------------------------|
|---------------------------------------|
|---------------------------------------|
|12-0-0-13-0-0-12-0-0-13-0-0-12-0-10-0--|

|---------------------------------------------|
|---------------------------------------------|
|---------------------------------------------|
|---------------------------------------------|
|12-0-0-0-13-0-0-0-12-0-0-0-13-0-0-12-0-10-0--|
|12-0-0-0-13-0-0-0-12-0-0-0-13-0-0-12-0-10-0--|
 PM-----------------------------------------|

|---------------------------------------|
|---------------------------------------|
|---------------------------------------|
|---------------------------------------| 2x
|---------------------------------------|
|12-0-0-13-0-0-12-0-0-13-0-0-12-0-10-0--|

|---------------------------------------|
|---------------------------------------|
|---------------------------------------|
|---------------------------------------| 2x
|---------------------------------------|
|12-0-0-13-0-0-12-0-0-13-0-0-12-0-10----|
 PM---------------------------------|

|---------------------------------------------|
|---------------------------------------------|
|---------------------------------------------| 2x
|---------------------------------------------|
|12-0-0-0-13-0-0-0-12-0-0-0-13-0-0-12-0-10-0--|
|12-0-0-0-13-0-0-0-12-0-0-0-13-0-0-12-0-10-0--|
 PM-----------------------------------------|

|---------------------------------------|
|---------------------------------------|
|---------------------------------------|
|---------------------------------------|
|---------------------------------------|
|12-0-0-13-0-0-12-0-0-13-0-0-12-0-10-0--|

|---------------------------------------------|
|---------------------------------------------|
|---------------------------------------------|
|---------------------------------------------|
|12-0-0-0-13-0-0-0-12-0-0-0-13-0-0-12-0-10-0--|
|12-0-0-0-13-0-0-0-12-0-0-0-13-0-0-12-0-10-0--|
 PM-----------------------------------------|

|---------------------------------------|
|---------------------------------------|
|---------------------------------------|
|---------------------------------------|
|---------------------------------------|
|12-0-0-13-0-0-12-0-0-13-0-0-12-0-10-0--|

|---------------------------------------------|
|---------------------------------------------|
|---------------------------------------------|
|---------------------------------------------|
|12-0-0-0-13-0-0-0-12-0-0-0-13-0-0-12-0-10-0--|
|12-0-0-0-13-0-0-0-12-0-0-0-13-0-0-12-0-10-0--|
 PM-----------------------------------------|

|---------------------------------------|
|---------------------------------------|
|---------------------------------------|
|---------------------------------------| 4x
|---------------------------------------|
|12-0-0-13-0-0-12-0-0-13-0-0-12-0-13-0--|

|---------------------------------------|
|---------------------------------------|
|---------------------------------------|
|---------------------------------------| 3x
|---------------------------------------|
|12-0-0-13-0-0-12-0-0-13-0-0-12-0-10-0--|
 PM-----------------------------------|

|----------------------------------------------------------------|--------|
|----------------------------------------------------------------|--------|
|----------------------------------------------------------------|--------|
|----------------------------------------------------------------|-0------|
|----------------------------------------------------------------|-0------|
|12--0--0--13--0---0--12---0--0--13--0--0--12--0--13-0--10---0---|-0------|
 PM-----------------------------------------------------------|


PM    palm mute



5.Forgive Me
-------------

drop C (C G C F A D)


Intro         gtr 1          gtr 2
|--------------------------|-------0----|
|--------------------------|------------|
|--------------------------|--10--------| 3x
|0h2-----------------------|------------|
|0h2--2-2-2---0h2--2-2-2---|------------|
|0h2--2-2-2---0h2--2-2-2---|------------|
      PM---|       PM---|

|--------------------------|
|--------------------------|
|--------------------------|
|0h2-----------------------|
|0h2--2-2-2---0h2--2-2-2---|
|0h2--2-2-2---0h2--2-2-2---|
      PM---|       PM---|

Verse 1
|--------------------------|-------0----|
|--------------------------|------------|
|--------------------------|--10--------|
|0h2-----------------------|------------|
|0h2--2-2-2---0h2--2-2-2---|------------|
|0h2--2-2-2---0h2--2-2-2---|------------|
      PM---|       PM---|

|--------------------------|
|--------------------------|
|--------------------------| 4x
|0h2-----------------------|
|0h2--2-2-2---0h2--2-2-2---|
|0h2--2-2-2---0h2--2-2-2---|
      PM---|       PM---|


Chorus 1
|---------------------------|---------------------------|
|---------------------------|---------------------------|
|-----8--8--7---------------|-----8-8-8-7---------------| 2x
|---------------------------|---------------------------|
|0----6--6--5--0-0-3-3-1-1--|0----6-6-6-5--0-0-3-3-1-1--|
|0-------------0-0-3-3-1-1--|0-------------0-0-3-3-1-1--|
               PM---------|                PM---------|

Interlude   gtr 1            gtr 2
|--------------------------|-------0----|
|--------------------------|------------|
|--------------------------|--10--------| 3x
|0h2-----------------------|------------|
|0h2--2-2-2---0h2--2-2-2---|------------|
|0h2--2-2-2---0h2--2-2-2---|------------|
      PM---|       PM---|

|--------------------------|
|--------------------------|
|--------------------------|
|0h2-----------------------|
|0h2--2-2-2---0h2--2-2-2---|
|0h2--2-2-2---0h2--2-2-2---|
      PM---|       PM---|

Verse 2
|--------------------------|-------0----|
|--------------------------|------------|
|--------------------------|--10--------|
|0h2-----------------------|------------|
|0h2--2-2-2---0h2--2-2-2---|------------|
|0h2--2-2-2---0h2--2-2-2---|------------|
      PM---|       PM---|

|--------------------------|
|--------------------------|
|--------------------------| 4x
|0h2-----------------------|
|0h2--2-2-2---0h2--2-2-2---|
|0h2--2-2-2---0h2--2-2-2---|
      PM---|       PM---|


Chorus 2
|---------------------------|---------------------------|
|---------------------------|---------------------------|
|-----8--8--7---------------|-----8-8-8-7---------------| 2x
|---------------------------|---------------------------|
|0----6--6--5--0-0-3-3-1-1--|0----6-6-6-5--0-0-3-3-1-1--|
|0-------------0-0-3-3-1-1--|0-------------0-0-3-3-1-1--|
               PM---------|                PM---------|

|-----------------------------|------------------------------|
|-----------------------------|------------------------------|
|-----10--10--9---------------|-----10-10-10-9---------------|
|-----------------------------|------------------------------|
|2-----8---8--7--2-2-5-5-3-3--|2-----8--8--8-7--2-2-5-5-3-3--|
|2---------------2-2-5-5-3-3--|2----------------2-2-5-5-3-3--|
                 PM---------|                   PM---------|

|---------------------------|---------------------------|
|---------------------------|---------------------------|
|-----8--8--7---------------|-----8-8-8-7---------------|
|---------------------------|---------------------------|
|0----6--6--5--0-0-3-3-1-1--|0----6-6-6-5--0-0-3-3-1-1--|
|0-------------0-0-3-3-1-1--|0-------------0-0-3-3-1-1--|
               PM---------|                PM---------|

Interlude     gtr 1         gtr 2
|--------------------------|-------0----|
|--------------------------|------------|
|--------------------------|--10--------| 3x
|0h2-----------------------|------------|
|0h2--2-2-2---0h2--2-2-2---|------------|
|0h2--2-2-2---0h2--2-2-2---|------------|
      PM---|       PM---|

|--------------------------|
|--------------------------|
|--------------------------|
|0h2-----------------------|
|0h2--2-2-2---0h2--2-2-2---|
|0h2--2-2-2---0h2--2-2-2---|
      PM---|       PM---|

Chorus 3
|---------------------------|---------------------------|
|---------------------------|---------------------------|
|-----8--8--7---------------|-----8-8-8-7---------------| 2x
|---------------------------|---------------------------|
|0----6--6--5--0-0-3-3-1-1--|0----6-6-6-5--0-0-3-3-1-1--|
|0-------------0-0-3-3-1-1--|0-------------0-0-3-3-1-1--|
               PM---------|                PM---------|

|-----------------------------|------------------------------|
|-----------------------------|------------------------------|
|-----10--10--9---------------|-----10-10-10-9---------------|
|-----------------------------|------------------------------|
|2-----8---8--7--2-2-5-5-3-3--|2-----8--8--8-7--2-2-5-5-3-3--|
|2---------------2-2-5-5-3-3--|2----------------2-2-5-5-3-3--|
                 PM---------|                   PM---------|

|---------------------------|
|---------------------------|
|-----8--8--7---------------|
|---------------------------|
|0----6--6--5--0-0-3-3-1-1--|
|0-------------0-0-3-3-1-1--|
               PM---------|

Interlude
|------------------------|--------------------------|
|------------------------|--------------------------|
|------------------------|--------------------------|
|6-----------------------|6-------------------------| 2x
|6--0--0--6--0--0--3--0--|6--0--0--6--0--0--0h3--0--|
|---0--0--6--0--0--3--0--|---0--0--6--0--0--0h3--0--|

Verse 3
|---------------------------------|
|---------------------------------|
|---------------------------------|
|6-6-6----------------------------| 4x
|6-6-6-0-0-0-6-6-6-0-0-0-3-3-0-0--|
|------0-0-0-6-6-6-0-0-0-3-3-0-0--|
 PM-----------------------------|

Interlude
|------------------------|--------------------------|
|------------------------|--------------------------|
|------------------------|--------------------------|
|6-----------------------|6-------------------------| 2x
|6--0--0--6--0--0--3--0--|6--0--0--6--0--0--0h3--0--|
|---0--0--6--0--0--3--0--|---0--0--6--0--0--0h3--0--|

Verse 4
|---------------------------------|
|---------------------------------|
|---------------------------------|
|6-6-6----------------------------| 4x
|6-6-6-0-0-0-6-6-6-0-0-0-3-3-0-0--|
|------0-0-0-6-6-6-0-0-0-3-3-0-0--|
 PM-----------------------------|

Interlude
|------------------------|--------------------------|
|------------------------|--------------------------|
|------------------------|--------------------------|
|6-----------------------|6-------------------------| 2x
|6--0--0--6--0--0--3--0--|6--0--0--6--0--0--0h3--0--|
|---0--0--6--0--0--3--0--|---0--0--6--0--0--0h3--0--|

Outro
|---------------------------------|     |----------|
|---------------------------------|     |----------|
|---------------------------------|     |----------|
|6-6-6----------------------------| 4x  |-1--------|
|6-6-6-0-0-0-6-6-6-0-0-0-3-3-0-0--|     |-1--------|
|------0-0-0-6-6-6-0-0-0-3-3-0-0--|     |-1--------|


h    hammer on
PM   palm mute




7.The Journey
--------------


Riff                          
|14-17-15-14---14-17-15-14-12---|
|-------------------------------|
|-------------------------------|
|-------------------------------| 8x
|-------------------------------|
|-------------------------------|




8.Spiral
----------


Intro 2x
|--------------------------------------------------------------------------|
|--------------------------------------------------------------------------|
|--------------------------------------------------------------------------|
|--------------------------------------------------------------------------|
|-----------------0-----------------0-------------------0------------------|
|0-13-0-0-13-12p0----0-13-0-0-13-12----0-13-0-0-13-12p0----0-13-0-0-13-12--|

Verse 1 2x
|--------------------------------------------------------------------------|
|--------------------------------------------------------------------------|
|--------------------------------------------------------------------------|
|--------------------------------------------------------------------------|
|-----------------0-----------------0-------------------0------------------|
|0-13-0-0-13-12p0----0-13-0-0-13-12----0-13-0-0-13-12p0----0-13-0-0-13-12--|

Pre-Chorus 2x
|--------------------------------------------------------------------------|
|--------------------------------------------------------------------------|
|--------------------------------------------------------------------------|
|--------------------------------------------------------------------------|
|-----------------0-----------------0-------------------0------------------|
|0-13-0-0-13-12p0----0-13-0-0-13-12----0-13-0-0-13-12p0----0-13-0-0-13-12--|

Chorus
|------------------------------------------------------|
|------------------------------------------------------|
|------------------------------------------------------|
|5-5-5-5-0-1-1-1-3----10------8-7-------10------8-7----|
|5-5-5-5-0-1-1-1-3--0--8--0-0-6-5-6---0--8--0-0-6-5-6--|
|5-5-5-5-0-1-1-1-3--0-----0-0-----6---0-----0-0-----6--|

|--------------------------------------------------|
|--------------------------------------------------|
|--------------------------------------------------|
|5-5-5-5-8-8-8-8-3----10-----8-7------10-----8-7---|
|5-5-5-5-8-8-8-8-3--0--8-0-0-6-5-6--0--8-0-0-6-5-6-|
|5-5-5-5-8-8-8-8-3--0----0-0-----6--0----0-0-----6-|

|--------------------------------|
|--------------------------------|
|--------------------------------|
|---10-----8-7------10-----8-7---|
|-0--8-0-0-6-5-6--0--8-0-0-6-5-6-|
|-0----0-0-----6--0----0-0-----6-|

Interlude 2x
|--------------------------------------------------------------------------|
|--------------------------------------------------------------------------|
|--------------------------------------------------------------------------|
|--------------------------------------------------------------------------|
|-----------------0-----------------0-------------------0------------------|
|0-13-0-0-13-12p0----0-13-0-0-13-12----0-13-0-0-13-12p0----0-13-0-0-13-12--|

Verse 2 2x
|--------------------------------------------------------------------------|
|--------------------------------------------------------------------------|
|--------------------------------------------------------------------------|
|--------------------------------------------------------------------------|
|-----------------0-----------------0-------------------0------------------|
|0-13-0-0-13-12p0----0-13-0-0-13-12----0-13-0-0-13-12p0----0-13-0-0-13-12--|

Chorus 2
|------------------------------------------------------|
|------------------------------------------------------|
|------------------------------------------------------|
|5-5-5-5-0-1-1-1-3----10------8-7-------10------8-7----|
|5-5-5-5-0-1-1-1-3--0--8--0-0-6-5-6---0--8--0-0-6-5-6--|
|5-5-5-5-0-1-1-1-3--0-----0-0-----6---0-----0-0-----6--|

|--------------------------------------------------|
|--------------------------------------------------|
|--------------------------------------------------|
|5-5-5-5-8-8-8-8-3----10-----8-7------10-----8-7---|
|5-5-5-5-8-8-8-8-3--0--8-0-0-6-5-6--0--8-0-0-6-5-6-|
|5-5-5-5-8-8-8-8-3--0----0-0-----6--0----0-0-----6-|

|--------------------------------|
|--------------------------------|
|--------------------------------|
|---10-----8-7------10-----8-7---|
|-0--8-0-0-6-5-6--0--8-0-0-6-5-6-|
|-0----0-0-----6--0----0-0-----6-|

|--------------------------------|
|--------------------------------|
|--------------------------------| 2x
|---10-----8-7------10-----8-7---|
|-0--8-0-0-6-5-6--0--8-0-0-6-5-6-|
|-0----0-0-----6--0----0-0-----6-|

Rythm
|--------------------------------------------------------------------------|
|--------------------------------------------------------------------------|
|--------------------------------------------------------------------------|
|--------------------------------------------------------------------------|
|-----------------0-----------------0-------------------0------------------|
|0-13-0-0-13-12p0----0-13-0-0-13-12----0-13-0-0-13-12p0----0-13-0-0-13-12--|

solo
|-------------------------------------------------------------------------|
|--10---11-10h11p10--------10---13-10h11p10--------10---------------------|
|-------------------12----------------------12----------10-9h10p9-7-7-5-7-|
|0----0------------------0----0------------------0----0-------------------|
|-------------------------------------------------------------------------|
|-------------------------------------------------------------------------|

Chorus 3
|------------------------------------------------------|
|------------------------------------------------------|
|------------------------------------------------------|
|5-5-5-5-0-1-1-1-3----10------8-7-------10------8-7----|
|5-5-5-5-0-1-1-1-3--0--8--0-0-6-5-6---0--8--0-0-6-5-6--|
|5-5-5-5-0-1-1-1-3--0-----0-0-----6---0-----0-0-----6--|

|--------------------------------------------------|
|--------------------------------------------------|
|--------------------------------------------------|
|5-5-5-5-8-8-8-8-3----10-----8-7------10-----8-7---|
|5-5-5-5-8-8-8-8-3--0--8-0-0-6-5-6--0--8-0-0-6-5-6-|
|5-5-5-5-8-8-8-8-3--0----0-0-----6--0----0-0-----6-|

|--------------------------------|
|--------------------------------|
|--------------------------------|
|---10-----8-7------10-----8-7---|
|-0--8-0-0-6-5-6--0--8-0-0-6-5-6-|
|-0----0-0-----6--0----0-0-----6-|

|--------------------------------|
|--------------------------------|
|--------------------------------| 2x
|---10-----8-7------10-----8-7---|
|-0--8-0-0-6-5-6--0--8-0-0-6-5-6-|
|-0----0-0-----6--0----0-0-----6-|

Outro

gtr 1
|--------------------------------------------------------------------------|
|--------------------------------------------------------------------------|
|--------------------------------------------------------------------------|
|--------------------------------------------------------------------------|
|-----------------0-----------------0-------------------0------------------|
|0-13-0-0-13-12p0----0-13-0-0-13-12----0-13-0-0-13-12p0----0-13-0-0-13-12--|

gtr 2
|-------------------------------------------------------------------------|
|--10---11-10h11p10--------10---13-10h11p10--------10---------------------|
|-------------------12----------------------12----------10-9h10p9-7-7-5-7-|
|0----0------------------0----0------------------0----0-------------------|
|-------------------------------------------------------------------------|
|-------------------------------------------------------------------------|


h    hammer on
p    pull off


there u go please rate
comments
We did not receive enough feedback on this tab! Please rate:
print report bad tab
1 2 3 4 5
1 comment total.
0 reply
Metalsmack355 wrote on February 6 2006, 03:41 pm

oops sorry everyone if orgot to include "vampires"

I want to post or [tab]
guest
You may want to rate the tab now too:
select rating
Please do not post tabs as comments. Select "correction" instead!