Oops, an error
Loading. Please wait.

Bleeding Me Tab

ver2
ver2

Whole song

Interactive

More versions @911Tabs.com
3,782 views 1 this week
no commentswrite comment
1 2 3 4 5
excellent!
x 7
Autoscroll
+/-
esc
set tempo
stop
Contributor
Difficulty
intermediate
Hey! There's an official Ultimate Guitar app which is ideal
for learning songs when you're away from computer. Get the app
WARNING: You are trying to view
                                    content from Ultimate-Guitar.com
                                    in an unauthorized application,
                                    which is prohibited.

                                    Please use an official Ultimate
                                    Guitar Tabs application for iPhone,
                                    iPad or Android to access legitimate
                                    chords, guitar, bass, and drum tabs
                                    from Ultimate-Guitar.com database.

                                    Type "ultimate guitar tabs" in Apple
                                    App Store's or Android Market's
                                    search to find the application.
bleeding me (low to high) DADGBE
                                /=slide up    *=palm mute  h=hammer on
                                \=slide down  ^=bend
                                T=trem pick   p=pull off
intro (dist)
--------------------------------------------------------------|
--------------------------------------------------------------|
-----7-(7)/-10------10--------------------10------------------|
---7----7-/-10-10------10----------10---------10-----12-------|
-5----------------8-------8p0---8-----8-----------8-----8-----|
------------------------------8---------8-----------------8p0-|

intro cont (dist)                              when slide guitar starts
----------------------------------------------|-----------------------------------|
----------------------------------------------|-----------------------------------|
-----7-(7)/-10------10--------------------10--|---------7-(7)-/-10------10--------|
---7----7-/-10-10------10----------10---------|-------7----7--/-10-10------10-----|
-5----------------8-------8p0---8-----8-------|-0-0-5-----------------8-------8p0-|
------------------------------8---------8-----|-----------------------------------|

intro cont (dist)
--------------------------------|------------------|
--------------------------------|------------------|
--------------------------------|----------9-------|
-----10-----10-----10-----10----|-----9------9-----|
---8----8------8------8------8--|---7----------7---|
-8--------8------8------8------8|-7-----7--------7-|
                                 slide guiar ends

intro 2 (dist) w/slide you can do this if you want this is the slide guitar behind the intro
listen for the timeing to play it
--------------------------------|
--------------------------------|
-3-/-7-7-/-9-/-10-\--\3-(3)\----|
-----------------------------/7-|
--------------------------------|
--------------------------------|

intro 3 (dist)
---------|
---------|
---------|
-0-3-3-0-|
-0-3-3-0-|
-0-3-3-0-|
       *
guitar behind intro 4 (dist) play 3x 1/2
------------------------|-------------------------------------|
-3-3-3-3----------------|-10-10-10-10-10-10-10-10-10-10-10-10-|
-2-2-2-2----------------|-10-10-10-10-10-10-10-10-10-10-10-10-|
-0-0-0-0-0h3-3-3-3-3-3-3|-10-10-10-10-10-10-10-10-10-10-10-10-|
-0-0-0-0-0h3-3-3-3-3-3-3|--8--8--8--8--8--8--8--8--8--8--8--8-|
-0-0-0-0-0h3-3-3-3-3-3-3|--8--8--8--8--8--8--8--8--8--8--8--8-|


intro 4 (dist) w/slide
-3/10-10----10----10-----------------------------------------------------------------------|
---------10----10----10----10-------------------10-(10)\-----------------------------------|
------------------------10-----10\9/10-(10)\/10----------/12-(12)\-10-9/10-10/12-10--(10)\-|
-------------------------------------------------------------------------------------------|
-------------------------------------------------------------------------------------------|
-------------------------------------------------------------------------------------------|

intro 4 cont (dist) w/slide
-----10----10----10----10-10/13-(13)\10-10--------------------------------------------------------|
-/10----10----10----10---------------------10-----------------------------------------------------|
-----------------------------------------------10-(10)\9/10-9/10--/12-(12)\-10\9/10-9-10\-8-(8)\--|
--------------------------------------------------------------------------------------------------|
--------------------------------------------------------------------------------------------------|
--------------------------------------------------------------------------------------------------|

verse (dist)
---------------------------------------------------------|
---------------------------------------------------------|
---------------------------------------------------------|
-5/7-7-0-0-8\7-0-0-0-8\7-0-0-3/5-5-5-5-3/5-5-5-5-6\5-5-0-|
-3/5-5-0-0-6\5-0-0-0-6\5-0-0-3/5-5-5-5-3/5-5-5-5-6\5-5-0-|
-------0-0-----0-0-0-----0-0-3/5-5-5-5-3/5-5-5-5-6\5-5-0-|

verse cont (dist)
------------------------------------------------------------|
------------------------------------------------------------|
------------------------------------------------------------|
--5/7-7-0-0-8\7-0-0-0-8\7-7-7-7\5-5-5-5-5-5-5\3-3-3-3/5-5-5-|
--3/5-5-0-0-6\5-0-0-0-6\5-5-5-5\3-3-3-3-3-3-3\1-1-1-1/3-3-3-|
--------0-0-----0-0-0---------------------------------------|

verse cont (dist)
----------------------------------------------------------|
----------------------------------------------------------|
----------------------------------------------------------|
-5/7-7-0-0-8\7-0-0-0-8\7-0-0-3/5-5-5-5-3/5-5-5-5-6\5-5-5/-|
-3/5-5-0-0-6\5-0-0-0-6\5-0-0-3/5-5-5-5-3/5-5-5-5-6\5-5-5/-|
-------0-0-----0-0-0-----0-0-3/5-5-5-5-3/5-5-5-5-6\5-5-5/-|

pre-chorus (dist)
---------------------------------------------------------------------|
---10-10-10---10-10-10-10-10-10-----------12-12-12-12-12-12-0--------|
---10-10-10---10-10-10-10-10-10-----------12-12-12-12-12-12-0--------|
-8-10-10-10-8-10-10-10-10-10-10-----10-10-12-12-12-12-12-12---0-3-3\-|
-8--8--8--8-8--8--8--8--8--8--8--8/-10-10-10-10-10-10-10-10---0-3-3\-|
-8--8--8--8-8--8--8--8--8--8--8--8/-10-10-10-10-10-10-10-10---0-3-3\-|

chorus (dist) 2x
-------------------------------------------------------------|
-3-3-3-3-----------------10-10-10-10-10-10-10-10-10-10-10-10-|
-2-2-2-2-----------------10-10-10-10-10-10-10-10-10-10-10-10-|
-0-0-0-0-0h3-3-3-3-3-3-3-10-10-10-10-10-10-10-10-10-10-10-10-|
-0-0-0-0-0h3-3-3-3-3-3-3--8--8--8--8--8--8--8--8--8--8--8--8-|
-0-0-0-0-0h3-3-3-3-3-3-3--8--8--8--8--8--8--8--8--8--8--8--8-|

chorus cont (dist)
----------------------------------------|
-3-3-3-3-------------------9-9-9-9------|
-2-2-2-2-----------------9-9-9-9-9------|
-0-0-0-0-0h3-3-3-3-3-3-3-9-9-9-9-9------|
-0-0-0-0-0h3-3-3-3-3-3-3-7-7-7-7-7------|
-0-0-0-0-0h3-3-3-3-3-3-3-7-7-7-7-7-/14\-|

verse (dist)
---------------------------------------------------------|
---------------------------------------------------------|
---------------------------------------------------------|
-5/7-7-0-0-8\7-0-0-0-8\7-0-0-3/5-5-5-5-3/5-5-5-5-6\5-5-0-|
-3/5-5-0-0-6\5-0-0-0-6\5-0-0-3/5-5-5-5-3/5-5-5-5-6\5-5-0-|
-------0-0-----0-0-0-----0-0-3/5-5-5-5-3/5-5-5-5-6\5-5-0-|

verse cont (dist)
------------------------------------------------------------|
------------------------------------------------------------|
------------------------------------------------------------|
--5/7-7-0-0-8\7-0-0-0-8\7-7-7-7\5-5-5-5-5-5-5\3-3-3-3/5-5-5-|
--3/5-5-0-0-6\5-0-0-0-6\5-5-5-5\3-3-3-3-3-3-3\1-1-1-1/3-3-3-|
--------0-0-----0-0-0---------------------------------------|

verse cont (dist)
----------------------------------------------------------|
----------------------------------------------------------|
----------------------------------------------------------|
-5/7-7-0-0-8\7-0-0-0-8\7-0-0-3/5-5-5-5-3/5-5-5-5-6\5-5-5/-|
-3/5-5-0-0-6\5-0-0-0-6\5-0-0-3/5-5-5-5-3/5-5-5-5-6\5-5-5/-|
-------0-0-----0-0-0-----0-0-3/5-5-5-5-3/5-5-5-5-6\5-5-5/-|

pre-chorus (dist)
---------------------------------------------------------------------|
---10-10-10---10-10-10-10-10-10-----------12-12-12-12-12-12-0--------|
---10-10-10---10-10-10-10-10-10-----------12-12-12-12-12-12-0--------|
-8-10-10-10-8-10-10-10-10-10-10-----10-10-12-12-12-12-12-12---0-3-3\-|
-8--8--8--8-8--8--8--8--8--8--8--8/-10-10-10-10-10-10-10-10---0-3-3\-|
-8--8--8--8-8--8--8--8--8--8--8--8/-10-10-10-10-10-10-10-10---0-3-3\-|

chorus (dist) 2x
-------------------------------------------------------------|
-3-3-3-3-----------------10-10-10-10-10-10-10-10-10-10-10-10-|
-2-2-2-2-----------------10-10-10-10-10-10-10-10-10-10-10-10-|
-0-0-0-0-0h3-3-3-3-3-3-3-10-10-10-10-10-10-10-10-10-10-10-10-|
-0-0-0-0-0h3-3-3-3-3-3-3--8--8--8--8--8--8--8--8--8--8--8--8-|
-0-0-0-0-0h3-3-3-3-3-3-3--8--8--8--8--8--8--8--8--8--8--8--8-|

chorus 2 (dist)
---------------------------------------------------------------|
-3-3-3-3-------------------11-11-11-10-10-10-10-10-10-10-10-10-|
-2-2-2-2-------------------10-10-10-10-10-10-10-10-10-10-10-10-|
-0-0-0-0-0h3-3-3-3-3-3-3----8--8--8-10-10-10-10-10-10-10-10-10-|
-0-0-0-0-0h3-3-3-3-3-3-3-8--8--8--8--8--8--8--8--8--8--8--8--8-|
-0-0-0-0-0h3-3-3-3-3-3-3-8--8--8--8--8--8--8--8--8--8--8--8--8-|

chorus 2 cont (dist)
-------------------------|
-3-3-3-3-----------------|
-2-2-2-2---------------3-|
-0-0-0-0-0h3-3-3-3-3-3-3-|
-0-0-0-0-0h3-3-3-3-3-3-1-|
-0-0-0-0-0h3-3-3-3-3-3-1-|

interlude (dist)
--------------------------------------------------------------|
--------------------------------------------------------------|
-----7-(7)/-10------10--------------------10------------------|
---7----7-/-10-10------10----------10---------10-----12-------|
-5----------------8-------8p0---8-----8-----------8-----8-----|
------------------------------8---------8-----------------8p0-|

interlude cont (dist)
-------------------------------------------------|
-------------------------------------------------|
-----7-(7)/-10------10--------------------10-----|
---7----7-/-10-10------10----------10------------|
-5----------------8-------8p0---8-----8------0-0-|
------------------------------8---------8--------|

interlude cont (dist)
--------------------------------------------------------------|
--------------------------------------------------------------|
-----7-(7)/-10------10--------------------10------------------|
---7----7-/-10-10------10----------10---------10-----12-------|
-5----------------8-------8p0---8-----8-----------8-----8-----|
------------------------------8---------8-----------------8p0-|

interlude cont (dist)
----------------------------------------------------------------------------|
----------------------------------------------------------------------------|
-----7-(7)/-10------10------------------------------------------------------|
---7----7-/-10-10------10------10-10-10-10-10-10-10-10-10-10-10-10-10-10-10-|
-5----------------8--------8p0--8--8--8--8--8--8--8--8--8--8--8--8--8--8--8-|
--------------------------------8--8--8--8--8--8--8--8--8--8--8--8--8--8--8-|

solo w/slide
-----10-10\-/10-10-10\-/10-/10-/10-10-10--------------------10-10-------------------------|
-/10-10-10\-/10-10-10\-/10-/10-/10-10-10-9-(9)/10-10-----10-------8/10-(10)\8-8/10--------|
-/10----------------------------------------------10-/10---------------------------9-9/10-|
------------------------------------------------------------------------------------------|
------------------------------------------------------------------------------------------|
------------------------------------------------------------------------------------------|
      T          T

solo cont w/slide
--------------------8/10\8-/13-10-(10)\-12/13-12/13\12-12\10-10-(10)\--------------10-10--------|
----------------/10---------------------------------------------------x\-----10-10-------10-----|
-------------------------------------------------------------------------/10-----------------10-|
-10-10-10-(10)\---------------------------------------------------------------------------------|
------------------------------------------------------------------------------------------------|
------------------------------------------------------------------------------------------------|

solo cont w/slide
-10-------10-------10-----/8/12\10-10-----------------------|
----10-------10-------10\-------------10-10-(10)\9/10---10\-|
-------10-------10-----------------------10-(10)\9/10---10\-|
------------------------------------------------------------|
------------------------------------------------------------|
------------------------------------------------------------|

outro chorus (dist)
-----------------------------------------------------|
-----------------10-10-10-10-10-10-10-10-10-10-10-10-|
-----------------10-10-10-10-10-10-10-10-10-10-10-10-|
-0h3-3-3-3-3-3-3-10-10-10-10-10-10-10-10-10-10-10-10-|
-0h3-3-3-3-3-3-3--8--8--8--8--8--8--8--8--8--8--8--8-|
-0h3-3-3-3-3-3-3--8--8--8--8--8--8--8--8--8--8--8--8-|

outro chorus cont (dist) 3x
-------------------------------------------------------------|
-3-3-3-3-----------------10-10-10-10-10-10-10-10-10-10-10-10-|
-2-2-2-2-----------------10-10-10-10-10-10-10-10-10-10-10-10-|
-0-0-0-0-0h3-3-3-3-3-3-3-10-10-10-10-10-10-10-10-10-10-10-10-|
-0-0-0-0-0h3-3-3-3-3-3-3--8--8--8--8--8--8--8--8--8--8--8--8-|
-0-0-0-0-0h3-3-3-3-3-3-3--8--8--8--8--8--8--8--8--8--8--8--8-|


outro 2 (dist) w/slide
-3/10-10----------10----10----10-----------------------------------------------------------------------|
---------10----10----10----10----10----10------------------10-(10)\------------------------------------|
------------------------------------10----10\9/10-(10)\/10----------/12-(12)\-10-9/10-10/12-10--(10)\--|
-------------------------------------------------------------------------------------------------------|
-------------------------------------------------------------------------------------------------------|
-------------------------------------------------------------------------------------------------------|

outro 2 cont (dist) w/slide
-----10----10----10----10-10/13-(13)\10-10-----------------------------------------------|--------|
-/10----10----10----10---------------------10--------------------------------------------|--------|
-----------------------------------------------10-(10)\9/10-9/10--/12-(12)\-10\9/10-9-10\|-8-(8)\-|
-----------------------------------------------------------------------------------------|--------|
-----------------------------------------------------------------------------------------|--------|
-----------------------------------------------------------------------------------------|--------|
                                                                                          w/delay
comments
print report bad tab
I want to post or [tab]
guest
You may want to rate the tab now too:
select rating
Please do not post tabs as comments. Select "correction" instead!