Oops, an error
Loading. Please wait.

Changes Tab

ver1
ver1

Album

Whole song

Interactive

More versions @911Tabs.com
4,575 views 3 this week
4 commentsread comments
1 2 3 4 5
excellent!
x 2
Autoscroll
+/-
esc
set tempo
stop
Contributor
WARNING: You are trying to view
                                    content from Ultimate-Guitar.com
                                    in an unauthorized application,
                                    which is prohibited.

                                    Please use an official Ultimate
                                    Guitar Tabs application for iPhone,
                                    iPad or Android to access legitimate
                                    chords, guitar, bass, and drum tabs
                                    from Ultimate-Guitar.com database.

                                    Type "ultimate guitar tabs" in Apple
                                    App Store's or Android Market's
                                    search to find the application.
Band- Godsmack
Album- Changes

This is Godsmack's DVD that was in theaters for that one night.
Here are all the songs featured in the video.

1.Straight Out Of Line
2.Awake
3.Faceless
4.Bad Religion
5.Moon Baby
6.Changes
7.Re-Align
8.Serenity
9.Keep Away
10.Voodoo
11.Batalla de los Tambores
12.Whatever
13.I Stand Alone

1.STRAIGHT OUT OF LINE

Tuning CGCFAD

Intro: (w/dist. and delay) Guitar 1
D|--------------------------------------------------------------|
A|--------------------------------------------------------------|
F|--------------------------------------------------------------|
C|--------------------------------------------------------------|
G|--7~~~~~(7)\---------10----------9--------------12-------7----|
C|--------------------------------------------------------------|
 vol swells....... with feedback

D|---------------------------------------------------|
A|---------------------------------------------------|
F|---------------------------------------------------|
C|---------------------------------------------------|
G|---10~~~~~~~~~-------------9--~~~~~~~(9)-----------|
C|---------------------------------------------------|

Guitar 2
D|-------------------------------------------------------------------|
A|-------------------------------------------------------------------|
F|-------------------------------------------------------------------|
C|-------------------------------------------------------------------|
G|-------------------------------------------------------------------|
C|--0-2-2-2-0-0-0-2-2-2-0-0-0-2-2-3--0-2-2-2-0-0-0-2-2-2-0-0-0-2-2-3-|
pm...................................................................

Guitar 2
D|--------------------------------------------------------|
A|--------------------------------------------------------|
F|--------------------------------------------------------|
C|--------------------------------------------------------|
G|--------------------------------------------------------|
C|--0-2-2-2-0-0-0-2-2-2-0-0-0-2-2-3--0-2-2-2-0-0-0-2-2-2--|
pm........................................................

Heavy Part
D|------------------------------------|
A|------------------------------------|
F|------------------------------------|
C|--0--2-2----0--2-2-2--0--0--3--3----|
G|--0--2-2----0--2-2-2--0--0--3--3----|
C|--0--2-2----0--2-2-2--0--0--3--3----|

D|------------------------------------------------------------------|
A|------------------------------------------------------------------|
F|------------------------------------------------------------------|
C|-0--2--2--2p0--0--2--2--2p0--0--2--2--2p0--0--2--2--2p0--0--2-2-3-|
G|-0--2--2--2p0--0--2--2--2p0--0--2--2--2p0--0--2--2--2p0--0--2-2-3-|
C|-0--2--2--2p0--0--2--2--2p0--0--2--2--2p0--0--2--2--2p0--0--2-2-3-|

D|------------------------------------------|
A|------------------------------------------|
F|------------------------------------------|
C|--0---2--2--2p0--0--2--2--2--0--0--3----0-|
G|--0---2--2--2p0--0--2--2--2--0--0--3----0-|
C|--0---2--2--2p0--0--2--2--2--0--0--3----0-|


FIll:
D|------------------------------|
A|------------------------------|
F|------------------------------|
C|---0h2-2-2-0-0-0h2-2-2-0-0----|
G|---0h2-2-2-0-0-0h2-2-2-0-0----|
C|---0h2-2-2-0-0-0h2-2-2-0-0----|
pm(with feedback)...............

Verses: w/panning
D|-------------------------------------|---------------------|
A|-------------------------------------|---------------------|
F|---9--x--9---x--9---x-9----x-9--x-9-o|-9---x-9-x9-x-9-x----|
C|------------------------------------o|---------------------|
G|-------------------------------------|---------------------|
C|-------------------------------------|---------------------|

D|-------------------------------------|---------------------|
A|-------------------------------------|---------------------|
F|---9--x9h9-x-9----x-9-----xxxxx-----o|-9---x-9h9-x9-x-9-9--|
C|------------------------------------o|---------------------|
G|-------------------------------------|---------------------|
C|-------------------------------------|---------------------|

Chorus: Listen for exact strums
D|---------------------------------------------------------------------|
A|--------------------------------3~--3-33-3-3-3-3-3-------------------|
F|--------------------------------2~--2-22-2-2-2-2-2-------------------|
C|-2~--222-222--5~-5-555-5-555-5--0~--0-00-0-0-0-0-0--3--3--3-3--222-0-|
G|-2~--222-222--5~-5-555-5-555-5--0~--0-00-0-0-0-0-0--3--3--3-3--222-0-|
C|-2~--222-222--5~-5-555-5-555-5--0~--0-00-0-0-0-0-0--3--3--3-3--222-0-|

continued:
D|-------------------------------------------------------------|
A|----------------------------------3---3-333-3333-3--3-3------|
F|----------------------------------2---2-222-2222-2--2-2------|
C|--2--22-222-2-2/5--55-55555-55-5--0---0-000-0000-0--0-0--5---|
G|--2--22-222-2-2/5--55-55555-55-5--0---0-000-0000-0--0-0--3---|
C|--2--22-222-2-2/5--55-55555-55-5--0---0-000-0000-0--0-0--3---|

Fill:
D|----------------------------|
A|----------------------------|
F|----------------------------|
C|--5--------5---------5------|
G|--3--------3---------3------|
C|--3---3-3--3---3-3---3------|
pm      ....     ....

D|------------------------------------------------------|
A|------------------------------------------------------|
F|------------------------------------------------------|
C|-0--2-2--2-0-0--2-2--0---0--3----0-2-2-0-0-0h2-2h3----|
G|-0--2-2--2-0-0--2-2--0---0--3----0-2-2-0-0-0h2-2h3----|
C|-0--2-2--2-0-0--2-2--0---0--3----0-2-2-0-0-0h2-2h3----|

Interlude: with wah & Ebow
D|-------------------------------------------------------------|
A|-------------------------------------------------------------|
F|---9-\------9-----(9)~~~-----------------------------------x-|
C|---8-\------8--------------------------------------------x---|
G|-------------------------------x*-----x/---------------------|
C|----------------------------5--x*-------------x/8h(8)/9\-----|

D|-------------------------------------------------------------|
A|-------------------------------------------------------------|
F|------------------------------------9-9---9---9-9--9---------|
C|----------------------------x---8---8-8---8---9-9--9---------|
G|--6--7---7~~~~~--(7)----x------------------------------------|
C|-------------------------------------------------------------|

Guitar Solo: with wah & slide
D|-/0----0--0--0---0--0-0-0--0--0---0----0----0----0--0---0----|
A|--5----5--5--5---5--5/8-8--8--8--11---11---11---11-11--11----|
F|-------------------------------------------------------------|
C|-------------------------------------------------------------|
G|-------------------------------------------------------------|
C|-------------------------------------------------------------|

continued:
D|---15^-------12--------------------------------------------------|
A|--full----------15h1215h12----12---------------------------------|
F|---------------------------15----15-14-15 14h12-----12h14-12-----|
C|-------------------------------------------------14--------------|
G|-----------------------------------------------------------------|
C|-----------------------------------------------------------------|

continued:
D|---------15^----(15)----15^-(15)---12--1215h12---0-------15-------------|
A|--0--0--full------------15^-(15)-----15-------15---15/17----17(17)\5/---|
F|-----------------------half---------------------------------------------|
C|------------------------------------------------------------------------|
G|------------------------------------------------------------------------|
C|------------------------------------------------------------------------|

D|----15---17-----15--17----15----17--------15---18----15-15----18-----22^-|
A|-19---19----19----19--1919---19-----11/17----17---17-17----17---17-------|
F|-------------------------------------------------------------------------|
C|-------------------------------------------------------------------------|
G|-------------------------------------------------------------------------|
C|-------------------------------------------------------------------------|

Fill:
D|---------------------|
A|---------------------|
F|---------------------|
C|--3-33-33-3333-3333--|
G|--3-33-33-3333-3333--|
C|--3-33-33-3333-3333--|
pm    .............

Outro:
D|------------------------------------------------------------------------------|
A|------------------------------------------------------------------------------|
F|------------------------------------------------------------------------------|
C|-0-2-2-0-0--2-2-0-0--3---0-2-2-2-0-0-2-2-0-------2h3--0-2-2-2-0-0--2-2-0-0-3--|
G|-0-2-2-0-0--2-2-0-0--3---0-2-2-2-0-0-2-2-0-------2h3--0-2-2-2-0-0--2-2-0-0-3--|
C|-0-2-2-0-0--2-2-0-0--3---0-2-2-2-0-0-2-2-0--12\--2h3--0-2-2-2-0-0--2-2-0-0-3--|

D|--------------------------------------------------------------------------|
A|--------------------------------------------------------------------------|
F|--------------------------------------------------------------------------|
C|-0--2-2-0-0--2-2--0-0-2-2-3---0-2-2-0-0--2-2--0-0--3----------------------|
G|-0--2-2-0-0--2-2--0-0-2-2-3---0-2-2-0-0--2-2--0-0--3----------------------|
C|-0--2-2-0-0--2-2--0-0-2-2-3---0-2-2-0-0--2-2--0-0--3--0-2-2-2-0-0-0-2-2-3-|
pm                                                       ...................


2.AWAKE

INTRO: x2
Guitar 1: (distortion)
|-----------------------------------|
|--3----3----3--3-------------------| 
|--2----2----2--2---3---------------| 
|--0----0----0--0---3----1---1------|   
|--0----0----0--0---1----1---1------|  
|--0----0----0--0--------1---1------| 

Intro 2: x2
Guitar 2: (distortion & wah pedal) 
These are the chords used. Listen to the song to see how many
times to play them.
|------------------------|
|------------------------|
|--7----3----8-----------|
|--X----X----X-----------|
|--5----1----6-----------|
|------------------------|

Guitars 1&2:
          
|-----------------| x3             |---------------------------|
|-----------------|                |----------------------8----|      
|-----------------|                |----------------12----x----|  
|-0---0---0-0-----|   the play:    |-0----0---0-----x--or-5----|
|-0---0---0-0-----|                |-0----0---0-----10---------|         
|-0---0---0-0-----|                |-0----0---0----------------|

Guitars 1&2: x1
|-------------------------------------------------------------------|
|-------------------------------------------------------------------|
|--------------7-7-7-8-8-8-8----------------7-7-7-10-10-10-10-------|
|--0--0--0-0---x-x-x-x-x-x-x---0--0--0-0----x-x-x--x--x--x--x-------|
|--0--0--0-0---5-5-5-6-6-6-6---0--0--0-0----5-5-5--8--8--8--8-------|
|--0--0--0-0-------------------0--0--0-0----------------------------|
  (--- play this 3 times --)    (- then play this once -----)

Guitars 1&2: x1
|----------------------------------------------------------------| 
|----------------------------------------------------------------|  
|---------------7-7-7-8-8-8-8---------------7-7-7-8-8-8-8-10-----| 
|--0--0--0-0----x-x-x-x-x-x-x---0--0--0-0---x-x-x-x--x--x-x------|
|--0--0--0-0----5-5-5-6-6-6-6-- 0--0--0-0---5-5-5-6-6-6-6-8------| 
|--0--0--0-0--------------------0--0--0-0------------------------|
(--- play this 3 times --)       (- then play this once -----)



Guitars 1&2: x2
|------------------------------------------------|
|------------------------------------------------|
|-----------------------------------3--3---------|
|--0---0------0---0-----0---0----8--3--3---------|
|--0---0------0---0-----0---0----8--1--1---------|
|--0---0------0---0-----0---0----8---------------|


Then intro 1: x2
Then intro 2: x2
Then everything else
Then intro 1: x4
Then intro 2: x4


Guitars 1&2: x3
|---------------------------------------------|
|---------------------------------------------|
|---------------------------------------------|  
|---------------------------------------------|
|---------------------------------------------|
|--0-0-0-0---0-0-0-0-0---0-0------------------|
PM........   .........   ...

Then: Listen to song to see how many times to repeat
|---------------------------------------------|
|---------------------------------------------|
|---------------------------------------------|
|-0-0-0-0----0-0-0-0-0----0-0-----------------|
|-0-0-0-0----0-0-0-0-0----0-0-----------------|
|-0-0-0-0----0-0-0-0-0----0-0-----------------|
PM.......    .........    ...

Solo:

Guitar 2:  (using wah pedal)
|----------------------------------------|
|----------------------------------------|
|--7(T)----5(T)--8(T)--5(T)--7(T)--------|
|----------------------------------6(T)--|
|----------------------------------------|
|----------------------------------------|

|---------------------------------10(T)--|
|----------------------------------9(T)--|
|--7(T)----5(T)--8(T)--5(T)--7(T)--------|
|----------------------------------------|
|----------------------------------------|
|----------------------------------------|

|--------------------------------------------------|
|-----------------------------------10-13-10--10---|
|--12^1>12(P)10-12^1~~~~12^1/2--12^1--------12-----|
|--------------------------------------------------|
|--------------------------------------------------|
|--------------------------------------------------|

|-------------10----------------------------------|
|--10-13-10---------------------------------------|
|-----------13---13-12-13(P)12(P)10---10(H)12^1---|
|-----------------------------------12------------|
|-------------------------------------------------|
|-------------------------------------------------|

|-------------------------------13^1---13^1.5>13--|
|--10---------------------------------------------|
|----13-12-10---10-12^1--10~~~--------------------|
|-------------12----------------------------------|
|-------------------------------------------------|
|-------------------------------------------------|

|--10-------------------------------10-----10-----13-------15^1--15^1>15(P)13------|
|----13-10-----------------------/13--13-12--13/15--15(P)13------------------15~~~~|
|---------13-12-10--10-12^1/2--10--------------------------------------------------|
|-----------------12---------------------------------------------------------------|
|----------------------------------------------------------------------------------|
|----------------------------------------------------------------------------------|

Repeat the chorus, then . . .

OUTRO:
Guitars 1&2:
|---------------------------------|
|---------------------------------| repeat 
|---------------------------------| 4 times
|--0-0-0-0---0-0-0-0-0---0-0------|
|--0-0-0-0---0-0-0-0-0---0-0------| 
|--0-0-0-0---0-0-0-0-0---0-0------|
PM........   .........   ...

3.FACELESS

Intro Guitar 1:
     Part 1 x5:
E-----------------------|-----------------
B-----------------------|-----------------
G-----------------------|-----------------
D-----------------------|-----------------
A-------13-----13---13--|--3-1-0-1-0-1-3--
D---0-0-13-0-0-13-0-13--|--3-1-0-1-0-1-3--
         *      *    *

Guitar 2:
E-------------------------------------------------------------------
B-(harm)------------------------------------------------------------
G---3--7-7-7-7-7-7-7-7-7-7-7-7/13-13-13-13-13-13-13-13-13-13-13-13--
D------x-x-x-x-x-x-x-x-x-x-x-x--x--x--x--x--x--x--x--x--x--x--x--x--
A------5-5-5-5-5-5-5-5-5-5-5-5/11-11-11-11-11-11-11-11-11-11-11-11--
D-------------------------------------------------------------------

Then x2:
Both Guitars but Gtr 1 still has wah:
     Part 1 x3:               Then:
E-----------------------|------------------
B-----------------------|------------------
G-----------------------|------------------
D-----------------------|------------------
A---0-0-13-0-0-13-0-13--|---3-1-0-1-0-1-3--
D---0-0-13-0-0-13-0-13--|---3-1-0-1-0-1-3--


Verse x4:
    Part 1 x3:                       Then:
E--------------------------|---------------------------
B--------------------------|---------------------------
G--------------------------|---------------------------
D--------------------------|---------------------------
A--------------------------|------------------15---13--
D---0--0-0-0--0--0-13--13--|--0-0-0--0--0--0--15-0-13--
PM  .  . . .  .  .  *   *     . . .  .  .  .   *    * 


Prechorus:
E--------------------------------------------------------------------------
B--------------------------------------------------------------------------
G--------------------------------------------------------------------------
D---7-7-7-7-7-7-7-7-7-7-7-7-7-7-7-7-10-10-10-10-10-10-10-10\---------------
A---5-5-5-5-5-5-5-5-5-5-5-5-5-5-5-5--8--8--8--8--8--8--8--8\-1-1-1-1-1-1-1-
D---5-5-5-5-5-5-5-5-5-5-5-5-5-5-5-5--8--8--8--8--8--8--8--8\-1-1-1-1-1-1-1-
                          * * *            *  *  *                


Chorus:
E----------------------------------------------------------------------
B----------------------------------------------------------------------
G----------------------------------------------------------------------
D---------------------------------------5--5-5--5-5--5-8-------8-8-8-8-
A---0-0-13-0-0-13-0-13--0-0-13-0-0-13-0-5--5-5--5-5--5-8-8-8-8-8-8-8-8-
D---0-0-13-0-0-13-0-13--0-0-13-0-0-13-0-5--5-5--5-5--5-8-8-8-8-8-8-8-8-
PM                                                       . . .

E-----------------------------------------------------------------------
B-----------------------------------------------------------------------
G-----------------------------------------------------------------------
D---------------------------------------5--5-5--5-5--5-8----------------
A---0-0-13-0-0-13-0-13--0-0-13-0-0-13-0-5--5-5--5-5--5-8--3-1-0-1-0-1-3-
D---0-0-13-0-0-13-0-13--0-0-13-0-0-13-0-5--5-5--5-5--5-8--3-1-0-1-0-1-3-


Repeat Verse

Repeat Prechorus

Repeat Chorus x2 (on 2nd time, finish with an extra -3-1-0-1-0-1-3- on the low D and A strings


Interlude:
E-----------------------------------------------------------------------
B----(harm)-------------------------------------------------------------
G------3~--7-7-7-7-7-7-7-7-7-7-7-7/13-13-13-13-13-13-13-13-13-13-13-13--
D----------x-x-x-x-x-x-x-x-x-x-x-x--x--x--x--x--x--x--x--x--x--x--x--x--
A-0~-------5-5-5-5-5-5-5-5-5-5-5-5/11-11-11-11-11-11-11-11-11-11-11-11--
D-0~--------------------------------------------------------------------


Solo w/ wah:
E-----------------------------------------------------10-----------10--------
B---13^---13^~~~~---10h13p10-----------------------10----10-13-10------------
G----------------------------12^-----12-----12^------------------13---13-12^-
D----------------------------------------------------------------------------
A----------------------------------------------------------------------------
D----------------------------------------------------------------------------

E------------------------------------------------------------------------------------
B------------------10------10-----10---------(T)-------------------------------------
G---12p10--10-12^-----12^-----12^----12^\----10^-------10----------------------------
D--------12-----------------------------------------12----12~~~~--------10--10-12^---
A--------------------------------------------------------------------/12--12---------
D------------------------------------------------------------------------------------

E-------------------15^--13~~~~--10-------10~~----------10-----------------------13--13-----
B-----------------------------------13------------13^------13-10----13------13-15--15---15^-
G--------------------------------------10------------------------12^----/14-----------------
D---12p10-12~~~~\---------------------------------------------------------------------------
A-------------------------------------------------------------------------------------------
D-------------------------------------------------------------------------------------------

Play this during the end of the solo with another guitar:
E-------------------------------------------------------
B-------------------------------------------------------
G-------------------------------------------------------
D---7--7-7-7-7-7-7-7--7--10-10-10-10-10-10-10-10-10-10--
A---5--5-5-5-5-5-5-5--5---8--8--8--8--8--8--8--8--8--8--
D---5--5-5-5-5-5-5-5--5---8--8--8--8--8--8--8--8--8--8--


Repeat chorus x2

Outro:                 take this x2
  __________________________|__________________________   
 |    Part 1 x3:                    Part 2:           |
E---------------------------|---------------------------
B---------------------------|---------------------------
G---------------------------|---------------------------
D---------------------------|---------------------------
A---------------------------|---------------------------
D---0--0-0-0--0--0--13--13--|--0-0-0--0--0--0--15--13---
PM  .  . . .  .  .  *   *     . . .  .  .  .   *    * 

Then take part and repeat it 3x and finish with this:
E-------------------
B-------------------
G-------------------
D-------------------
A-------------------
D---0--0-0-0--0--0--
PM  .  . . .  .  .

4.BAD RELIGION

Intro:
E----------------------------
B----------------------------
G----------------------------
D---0--0--0-0-----0-----0-0--"GET BACK!"
A---0--0--0-0-(r)-0-(r)-0-0--
D---0--0--0-0-----0-----0-0--
(PM .  .  . .  .  . .)
sounds good using palm mute for an easy method, 
but really he uses rests

Verse:
E-----------------------------------------------------------------
B-----------------------------------------------------------------
G-----------------------------------------------------------------
D---0--0--0-0-----0-----0-----0-0--0--0--0-0-----0-----0-----0-0--
A---0--0--0-0-(r)-0-(r)-0-(r)-0-0--0--0--0-0-(r)-0-(r)-0-(r)-0-0--
D---0--0--0-0-----0-----0-----0-0--0--0--0-0-----0-----0-----0-0--
PM  .  .  . .     .     .     . .  .  .  . .     .     .     . .

Let the last note ring on this riff right before the chorus


Chorus:
E---------------------------------------------------------------------------
B---------------------------------------------------------------------------
G---7\5-5-5-5-5-5-5-5-5-5-5-5-5-5/7-7-7-7-7-7-7-7-7-7-7\5-5-5-5-5-5-5-5-5-5-
D---x-x-x-x-x-x-x-x-x-x-x-x-x-x-x-x-x-x-x-x-x-x-x-x-x-x-x-x-x-x-x-x-x-x-x-x-
A---5\3-3-3-3-3-3-3-3-3-3-3-3-3-3/5-5-5-5-5-5-5-5-5-5-5\3-3-3-3-3-3-3-3-3-3-
D---------------------------------------------------------------------------

After 1st chorus play the 1st intro riff
(another verse takes place after)

Second chorus add this:
E---------------------------------------------------------------
B---------------------------------------------------------------
G---5/7-7-7-7-7-7-7-7-7-7-7-7-7-7\5-5-5-5-5-5-5-5-5-5-----------
D---x-x-x-x-x-x-x-x-x-x-x-x-x-x-x-x-x-x-x-x-x-x-x-x-x-----------
A---3/5-5-5-5-5-5-5-5-5-5-5-5-5-5\3-3-3-3-3-3-3-3-3-3---/11\-7--
D------------------------------------------------------------7--

E---------------------------------------
B---------------------------------------
G---------------------------------------
D----L-------------L--------------------
A---8\7-7-7---7-7-8\7-7--7--5--3--2p0---
D---8\7-7-7---7-7-8\7-7--7--5--3--2p0---

Interlude x2:
E-------------------------------------------------------------
B-------------------------------------------------------------
G---7-----------5----------------4-----------3----------------
D---x-----------x----------------x-----------x----------------
A---5-----------3----------------2-----------1----------------
D------0--0--0-----0--0-2-0-2h3-----0--0--0-----0--0-2-0-2h3--

E-------------------------------------------------------------
B-------------------------------------------------------------
G---7-----------5----------------4-----------5----------------
D---x-----------x----------------x-----------x----------------
A---5-----------3----------------2-----------3----------------
D------0--0--0-----0--0-2-0-2h3-----0--0--0-----0--0-2-0-2h3--


End with verse riffs

5.MOON BABY

Verse
E--------------------------|-----------------------------|
B--------------------------|-----------------------------|
G--------------------------|-----------------------------|
D-4-4-4-4-4--4-4-4---0-2-2-|4-4-4-4-4--4-4-4-5-5-7-7-5-5-| x6
A-4-4-4-4-4--4-4-4---0-2-2-|4-4-4-4-4--4-4-4-5-5-7-7-5-5-|
D-4-4-4-4-4--4-4-4---0-2-2-|4-4-4-4-4--4-4-4-5-5-7-7-5-5-|

Chorus
E-----------------------|-------------------|
B-----------------------|-------------------|
G-----------------------|-------------------|
D-0-0--------0-0--------|4-4--------4-4-4-2-| x2
A-0-0-5h6-5--0-0-5h6-5--|4-4-4h5-4--4-4-4-2-|
D-0-0--------0-0--------|4-4--------4-4-4-2-|

Verse 2
E--------------------------|-------------------------|
B--------------------------|-------------------------|
G--------------------------|-------------------------|
D-4-4-4-4-4--4-4-4---0-2-2-|4-4-4-4-4--4-4-4---0-2-2-|
A-4-4-4-4-4--4-4-4---0-2-2-|4-4-4-4-4--4-4-4---0-2-2-|
D-4-4-4-4-4--4-4-4---0-2-2-|4-4-4-4-4--4-4-4---0-2-2-|

E--------------------------|-------------------------|
B--------------------------|-------------------------|
G--------------------------|-------------------------|
D-4-4-4-4-4--4-4-4---0-2-2-|4-4-4-4-4--4-4-4---------|
A-4-4-4-4-4--4-4-4---0-2-2-|4-4-4-4-4--4-4-4---------|
D-4-4-4-4-4--4-4-4---0-2-2-|4-4-4-4-4--4-4-4---------|

Verse x4
Chorus x4
Verse x2 (little different on the ending)

Part 1
E-------------------------|
B-------------------------|
G-------------------------|
D-0-4--0-4--0-4--0-4--5/4-| x8
A-0-4--0-4--0-4--0-4--5/4-|
D-0-4--0-4--0-4--0-4--5/4-|

Part 2
E----------------------|
B----------------------|
G----------------------|
D----------------------|
A-99999999997777777777-|
D----------------------|
i think used with a wa-wa pedal

Part 1 x2
Part 2
Part 1
Part 2 x2

Part 4
E-------|
B-------|
G-------|
D-4--9/-| x2
A-4--9/-|
D-4--9/-|

Part 1 x4
Part 2 
Part 1 x2
Part 2 
part 1 


Part 5
E--------------------|
B--------------------|
G--------------------|
D-0-4--0-4--0-4--0-4-|
A-0-4--0-4--0-4--0-4-|
D-0-4--0-4--0-4--0-4-|

6.CHANGES

Intro(x2; on second time, guitar 2 enters):
   Guitar 1:
E |--------------------|----------------------|---------------|---------------|
B |--------------------|----------------------|---------------|---------------|
G |--------------------|----------------------|---------------|---------------|
D |--------------------|----------------------|---------------|---------------|
A |--------------------|----------------------|---------------|---------------|
D |0-10-12-0-10-12-0-10|-12-0-10-12-0-10-12-8~|-0-8-0-8-10-0-7|8-0-5-7-0-3-5-5|

E |--------------------|----------------------|------------------|--------------|
B |--------------------|----------------------|------------------|--------------|
G |--------------------|----------------------|------------------|--------------|
D |--------------------|----------------------|------------------|--------------|
A |--------------------|----------------------|----------------7~|---5-7-0-3-5-5|
D |0-10-12-0-10-12-0-10|-12-0-10-12-0-10-12-10|-8-0-8-0-8-10-0-7~|-0-5-7-0-3-5-5|

   Intro:
   Guitar 2:
E |---------------|-----------------|----------------|----------------|
B |---------------|-----------------|----------------|----------------|
G |7-7-7-7-7-7-7-7|7-7-7-7-7-7-7-10~|1010101010101010|9-9-9-9-9-9-9-9-|
D |x-x-x-x-x-x-x-x|x-x-x-x-x-x-x-x--|x-x-x-x-x-x-x-x-|x-x-x-x-x-x-x-x-|
A |5-5-5-5-5-5-5-5|5-5-5-5-5-5-5-8~-|8-8-8-8-8-8-8-8-|7-7-7-7-7-7-7-7-|
D |---------------|-----------------|----------------|----------------|

E |---------------|---------------|---------------|---------------|
B |---------------|---------------|---------------|---------------|
G |7-7-7-7-7-7-7-7|5-5-5-5-5-5-5-5|3-3-3-3-3-3-3-5|5-5-5-5-5-5-5-7|
D |x-x-x-x-x-x-x-x|x-x-x-x-x-x-x-x|x-x-x-x-x-x-x-x|x-x-x-x-x-x-x-x|
A |5-5-5-5-5-5-5-5|5-5-5-5-5-5-5-3|1-1-1-1-1-1-1-3|3-3-3-3-3-3-3-5|
D |---------------|---------------|---------------|---------------|

   Post-Intro:
   Guitar 1:
E |---------------|------------------|------------------|--------------------|
B |---------------|------------------|------------------|--------------------|
G |---------------|------------------|------------------|-----------8-8-8-8-8|
D |---------------|------------------|------------------|-----------7-7-7-7-7|
A |0~~~~~~~~~~~~~~|(0)~~~~~~~~~~~~~~~|(0)~~~~~~~~~~~~~~~|(0)~~~~~~~~6-6-6-6-6|
D |0~~~~~~~~~~~~~~|(0)~~~~~~~~~~~~~~~|(0)~~~~~~~~~~~~~~~|(0)~~~~~~~~---------|
   Guitar 2(Clean/Acoustic):
E |---------------|------------------|------------------|--------------------|
B |---------------|------------------|------------------|--------------------|
G |---------------|------------------|------------------|--------------------|
D |-----0-----0---|--0--------0------|----0-------0-----|----------0---------|
A |----0-0---0----|0---0----3---3----|--0---0---3-------|------0-------------|
D |--0-----6----0-|-------6----------|0-------6------0~~|--------------------|
   Guitar 2:(Distorted):                              
E |---------------|------------------|------------------|--------------------|
B |---------------|------------------|------------------|--------------------|
G |7~~~~~~~~~~~~~~|~~~~~~~~~~~~~~~~~~|~~~~~~~~~~~~~~~~~~|--------------------|
D |x--------------|------------------|------------------|--------------------|
A |5~~~~~~~~~~~~~~|~~~~~~~~~~~~~~~~~~|~~~~~~~~~~~~~~~~~~|--------------------|
D |---------------|------------------|------------------|--------------------|

Verse 1:
   Guitar 1:
E |--------------|--------------|---------------|------------|--------------|
B |--------------|--------------|---------------|------------|--------------|
G |--------------|--------------|---------------|------------|--------------|
D |--------------|--------------|---------------|------------|--------------|
A |---6-----6----|---6-----3-6-5|----6-----6----|-6-----1----|---6-----6----|
D |0--6h0-0-6h0-0|-0-6h0-0-3-6-5|0-0-6h0-0-6h0-0|-6h0-0-1--00|0--6h0-0-6h0-0|
PM *      *     *  *     *       * *     *     *      *    ** *      *     *
                 
E |--------------|--------------|---------------|---------------|
B |--------------|--------------|---------------|---------------|
G |--------------|----------8-8\|---------------|---------------|
D |--------------|----------7-7\|---------------|---------------|
A |----6-----6---|---6------6-6\|---6-----6-----|----6-----3-6-5|
D |0--6h0-0-6h0-0|-0-6h0-0------|0--6h0-0-6h0-0-|0-0-6h0-0-3-6-5|
PM  *      *    *  *     *       *      *     *  * *     *

E |---------------|-------------|----------------|--------------|
B |---------------|-------------|----------------|--------------|
G |---------------|-------------|----------------|--------------|
D |---------------|-------------|----------------|--------------|
A |----6-----6----|---6-----1---|---6------------|---6---------8|
D |0-0-6h0-0-6h0-0|-0-6h0-0-1-00|0--6h0-0-6h0-0--|-0-6h0-0-0-0-8|
PM * *     *     *  *     *   ** *      *     *    *     * * *

E |-------------|------------------|
B |-------------|------------------|
G |----------10~|~10101010---------|
D |----------10~|~10101010-10-10-10|
A |--8-8-8-8--8~|~-8-8-8-8-10-10-10|
D |--8-8-8-8----|----------10-10-10|

Chorus(guitar 2 comes in 2nd time):
   Guitar 1:
E |--------------------|----------------------|---------------|---------------|
B |--------------------|----------------------|---------------|---------------|
G |--------------------|----------------------|---------------|---------------|
D |--------------------|----------------------|---------------|---------------|
A |--------------------|----------------------|---------------|---------------|
D |0-10-12-0-10-12-0-10|-12-0-10-12-0-10-12-8~|-0-8-0-8-10-0-7|8-0-5-7-0-3-5-5|

   Guitar 1:
E |--------------------|----------------------|------------|
B |--------------------|----------------------|------------|
G |--------------------|----------------------|------------|
D |--------------------|----------------------|------------|
A |--------------------|----------------------|-8~~~~~~~~~7|
D |0-10-12-0-10-12-0-10|-12-0-10-12-0-10-12-10|-8~~~~~~~~~7|
   Guitar 2:
E |---------------|----------------|-------|
B |---------------|----------------|-------|
G |7-7-7-7-7-7-7-7|7-7-7-7-7-7-7-7-|10~~~~9|
D |x-x-x-x-x-x-x-x|x-x-x-x-x-x-x-x-|x-----x|
A |5-5-5-5-5-5-5-5|5-5-5-5-5-5-5-5-|8~~~~~7|
D |---------------|----------------|-------|

   Guitar 1:
E |-----------|--------------|--------------|--------------|------TACET-|
B |-----------|--------------|--------------|--------------|------TACET-|
G |-----------|--------------|----------7-7\|--------------|------TACET-|
D |-----------|--------------|----------7-7\|--------------|------TACET-|
A |------0-3-3|---6-----6----|---6------6-6\|---6-----6----|---6--TACET-|
D |~~~~~~0-3-3|0--6h0-0-6h0-0|-0-6h0-0------|0--6h0-0-6h0-0|-0-6--TACET-|
PM             *      *     *  *     *       *      *     *  *

Verse 2:

   Guitar 1:
E |--------------|--------------|---------------|------------|--------------|
B |--------------|--------------|---------------|------------|--------------|
G |--------------|--------------|---------------|------------|--------------|
D |--------------|--------------|---------------|------------|--------------|
A |---6-----6----|---6-----3-6-5|----6-----6----|-6-----1----|---6-----6----|
D |0--6h0-0-6h0-0|-0-6h0-0-3-6-5|0-0-6h0-0-6h0-0|-6h0-0-1--00|0--6h0-0-6h0-0|
PM *      *     *  *     *       * *     *     *      *    ** *      *     *


E |--------------|---------------|--------------|------------------|
B |--------------|---------------|--------------|------------------|
G |--------------|---------------|----------10~|~10101010----------|
D |--------------|---------------|----------10~|~10101010--10-10-10|
A |---6-----6----|---6---------8-|--8-8-8-8--8~|~-8-8-8-8--10-10-10|
D |0--6h0-0-6h0-0|-0-6h0-0-0-0-8-|--8-8-8-8----|-----------10-10-10|
PM *      *     *  *     * * *

E |--------------|--------------|---------------|------------|--------------|
B |--------------|--------------|---------------|------------|--------------|
G |--------------|--------------|---------------|------------|--------------|
D |--------------|--------------|---------------|------------|--------------|
A |---6-----6----|---6-----3-6-5|----6-----6----|-6-----1----|---6-----6----|
D |0--6h0-0-6h0-0|-0-6h0-0-3-6-5|0-0-6h0-0-6h0-0|-6h0-0-1--00|0--6h0-0-6h0-0|
PM *      *     *  *     *       * *     *     *      *    ** *      *     *


E |--------------|---------------|-------------|-------------------|
B |--------------|---------------|-------------|-------------------|
G |--------------|---------------|----------10~|~10101010----------|
D |--------------|---------------|----------10~|~10101010--10-10-10|
A |---6-----6----|---6---------8-|--8-8-8-8--8~|~-8-8-8-8--10-10-10|
D |0--6h0-0-6h0-0|-0-6h0-0-0-0-8-|--8-8-8-8----|-----------10-10-10|
PM *      *     *  *     * * *

Chorus 2:
   Guitar 1(x2):
E |--------------------|----------------------|---------------|---------------|
B |--------------------|----------------------|---------------|---------------|
G |--------------------|----------------------|---------------|---------------|
D |--------------------|----------------------|---------------|---------------|
A |--------------------|----------------------|---------------|---------------|
D |0-10-12-0-10-12-0-10|-12-0-10-12-0-10-12-8~|-0-8-0-8-10-0-7|8-0-5-7-0-3-5-5|

   Guitar 2(x4):
E |---------------|-----------------|----------------|----------------|
B |---------------|-----------------|----------------|----------------|
G |7-7-7-7-7-7-7-7|7-7-7-7-7-7-7-10~|1010101010101010|9-9-9-9-9-9-9-9-|
D |x-x-x-x-x-x-x-x|x-x-x-x-x-x-x-x--|x-x-x-x-x-x-x-x-|x-x-x-x-x-x-x-x-|
A |5-5-5-5-5-5-5-5|5-5-5-5-5-5-5-8~-|8-8-8-8-8-8-8-8-|7-7-7-7-7-7-7-7-|
D |---------------|-----------------|----------------|----------------|

Interlude:
   Guitar 1(x7; hit note once):
E |---------------|
B |---------------|
G |---------------|
D |---------------|
A |0~~~~~~~~~~~~~~|
D |0~~~~~~~~~~~~~~|
   Guitar 2(Clean/Acoustic) x3:
E |---------------|------------------|------------------|--------------------|
B |---------------|------------------|------------------|--------------------|
G |---------------|------------------|------------------|--------------------|
D |-----0-----0---|--0--------0------|----0-------0-----|----0-----------0---|
A |----0-0---0----|0---0----3---3----|--0---0---3-------|-0-----0-----3------|
D |--0-----6----0-|-------6----------|0-------6------0~~|----------6--------3|

   Guitar 2:                              
E |---------------|------------------|------------------|--------------------|
B |---------------|------------------|------------------|--------------------|
G |7~~~~~~~~~~~~~~|~~~~~~~~~~~~~~~~~~|~~~~~~~~~~~~~~~~~~|--------------------|
D |x--------------|------------------|------------------|--------------------|
A |5~~~~~~~~~~~~~~|~~~~~~~~~~~~~~~~~~|~~~~~~~~~~~~~~~~~~|--------------------|
D |---------------|------------------|------------------|--------------------|
 
   Post-Interlude:
   Guitar 1(w/wah):
E |------------|----------|--------------------|------------------|
B |------------|----------|5-------5-------5---|--5-----5------5--|
G |--5/7~~~~~~~|--7\5~~~~7|--7-------7--------7|-----7----7------7|
D |------------|----------|--------------------|------------------|
A |------------|----------|--------------------|------------------|
D |------------|----------|--------------------|------------------|
HOLD                       ****************************************

Guitar Solo:

   Guitar 1:
E |----------------------|------------------|-------------|------------------|
B |-12^1===(12)=(12)=(12)|14-14-12h10-12-12v|---12^1r-----|---12^1---12h10---|
G |----------------------|------------------|-------------|----------------12|
D |----------------------|------------------|-------------|------------------|
A |----------------------|------------------|-------------|------------------|
D |----------------------|------------------|-------------|------------------|

E |--------1010---------------|--------10-----------------------------|
B |-13^1r~~----13h10-13-----13|10-13^1----13h10---10--10--------------|
G |----------------------13---|-----------------13--13--12h10--10-12^1|
D |---------------------------|------------------------------12-------|
A |---------------------------|---------------------------------------|
D |---------------------------|---------------------------------------|

E |----------------------10----------------|---------------------------|
B |10-13-10--10-13h10--13--10----------10--|---------------------------|
G |--------13--------12-----12-10-12-13--13|12-13-12h10--10h12^1--10v~~|
D |----------------------------------------|-----------12--------------|
A |----------------------------------------|---------------------------|
D |----------------------------------------|---------------------------|

E |-15^r==(15)=(15)=(15)|(15)=15=15h13-15v---12-13|-12-15-12-12-13-12-13|
B |---------------------|-------------------------|---------------------|
G |---------------------|-------------------------|---------------------|
D |---------------------|-------------------------|---------------------|
A |---------------------|-------------------------|---------------------|
D |---------------------|-------------------------|---------------------|

E |---------13------13----13|------------------------|---0-0---20^1---------------|
B |--15^1-----15^1----15^1--|15^1.5r-----13h15vv-----|---0-0--------20^0.5r-18--18|
G |-------------------------|---------14-------------|------------------------19--|
D |-------------------------|------------------------|----------------------------|
A |-------------------------|------------------------|----------------------------|
D |-------------------------|------------------------|----------------------------|
                                     
E |----------------------------------------|---------------------|
B |20^1--10--10----------------------------|---------------------|
G |--------13--13-12-13-12h10--10-12^1-10vv|~~-----------10\~~---|
D |--------------------------12------------|-----12h10---10\~~---|
A |----------------------------------------|----------12---------|
D |----------------------------------------|---------------------|
Delay                                                    ********

Interlude:

    Guitar 1.
E |--------------------|---------------------|--------------|---------------|
B |--------------------|---------------------|--------------|---------------|
G |--------------------|---------------------|--------------|---------------|
D |--------------------|---------------------|--------------|---------------|
A |--------------------|---------------------|--------------|---------------|
D |0-10-12-0-10-12-0-10|12-0-10-12-0-10-12-8~|0-8-0-8-10-0-7|8-0-5-7-0-3-5-5|

   Guitar 1:
E |--------------------|---------------------|---------------|---------------|
B |--------------------|---------------------|---------------|---------------|
G |--------------------|---------------------|---------------|---------------|
D |--------------------|---------------------|---------------|---------------|
A |--------------------|---------------------|8~~~~~~~~~~~7~~|~~~~~~~~~~~~~~~|
D |0-10-12-0-10-12-0-10|12-0-10-12-0-10-12-10|8~~~~~~~~~~~7~~|~~~~~~~~~~~~~~~|
   Guitar2:
E |--------------------|---------------------|---------------|---------------|
B |--------------------|---------------------|---------------|---------------|
G |--------------------|---------------------|10\-10\-10\-10\|10\-10\-10\-10\|
D |--------------------|---------------------|10\-10\-10\-10\|10\-10\-10\-10\|
A |--------------------|---------------------|---------------|---------------|
D |--------------------|---------------------|---------------|---------------|
Panning                                       *******************************

Chorus: 
   Guitar 1(x2):
E |--------------------|----------------------|---------------|---------------|
B |--------------------|----------------------|---------------|---------------|
G |--------------------|----------------------|---------------|---------------|
D |--------------------|----------------------|---------------|---------------|
A |--------------------|----------------------|---------------|---------------|
D |0-10-12-0-10-12-0-10|-12-0-10-12-0-10-12-8~|-0-8-0-8-10-0-7|8-0-5-7-0-3-5-5|

   Guitar 2(x4):
E |---------------|-----------------|----------------|----------------|
B |---------------|-----------------|----------------|----------------|
G |7-7-7-7-7-7-7-7|7-7-7-7-7-7-7-10~|1010101010101010|9-9-9-9-9-9-9-9-|
D |x-x-x-x-x-x-x-x|x-x-x-x-x-x-x-x--|x-x-x-x-x-x-x-x-|x-x-x-x-x-x-x-x-|
A |5-5-5-5-5-5-5-5|5-5-5-5-5-5-5-8~-|8-8-8-8-8-8-8-8-|7-7-7-7-7-7-7-7-|
D |---------------|-----------------|----------------|----------------|

Post-Chorus:
 Guitar 1:
E |-------10-----10----|--10-10---10---10-13^1|~~~~~~13vv|--13-15^1~~15^1|
B |--13^1---13^1---13^1|~----13^1-13^1--------|----------|/15------------|
G |--------------------|----------------------|----------|---------------|
D |--------------------|----------------------|----------|---------------|
A |--------------------|----------------------|----------|---------------|
D |--------------------|----------------------|----------|---------------|

E |15^1r~13---------------|----------------------------|
B |--------15v~\13-10-----|----------------------------|
G |------------------13-10|12-10vv~~12h10--------------|
D |-----------------------|--------------12-10---------|
A |-----------------------|-------------------12-11-10\|
D |-----------------------|----------------------------|
   
   Guitar 2:
E |--------------------|---------------------|--------------|---------------|
B |--------------------|---------------------|--------------|---------------|
G |--------------------|---------------------|--------------|---------------|
D |--------------------|---------------------|--------------|---------------|
A |--------------------|---------------------|--------------|---------------|
D |0-10-12-0-10-12-0-10|12-0-10-12-0-10-12-8~|0-8-0-8-10-0-7|8-0-5-7-0-3-5-5|

E |--------------------|---------------------|---------------|---------------|
B |--------------------|---------------------|---------------|---------------|
G |--------------------|---------------------|---------------|---------------|
D |--------------------|---------------------|---------------|---------------|
A |--------------------|---------------------|8~~~~~~~~~~~7~~|~~~~~~~~~~~~~~~|
D |0-10-12-0-10-12-0-10|12-0-10-12-0-10-12-10|8~~~~~~~~~~~7~~|~~~~~~~~~~~~~~~|

Outro:

   Guitar 1(x7; hit note once):
E |-----|
B |-----|
G |-----|
D |-----|
A |0~~~~|
D |0~~~~|

   Guitar 2(Clean/Acoustic) x2:
E |---------------|------------------|------------------|--------------------|
B |---------------|------------------|------------------|--------------------|
G |---------------|------------------|------------------|--------------------|
D |-----0-----0---|--0--------0------|----0-------0-----|----0-----------0---|
A |----0-0---0----|0---0----3---3----|--0---0---3-------|-0-----0-----3------|
D |--0-----6----0-|-------6----------|0-------6------0~~|----------6--------3|

7.RE-ALIGN

Intro Play x2 (with distortion)
E--------------------------------------------------
B--------------------------------------------------
G--------------------------------------------------
C-0-0-0-0--3-3-3-8-8-8--0-0-0-0--8--3-1-0----------
G-0-0-0-0--3-3-3-8-8-8--0-0-0-0--8--3-1-0----------
C-0-0-0-0--3-3-3-8-8-8--0-0-0-0--8--3-1-0----------

Intro(continued)
E-------------------------------------
B-------------------------------------
G-------------------------------------
C-0-0-0-0--3-3-3-8-8-8--0-0-0-0--8--1-
G-0-0-0-0--3-3-3-8-8-8--0-0-0-0--8--1-
C-0-0-0-0--3-3-3-8-8-8--0-0-0-0--8--1-
                                    ^Let ring

Verse (Distortion)
E----------------------------------------------------
G----------------------------------------------------
B----------------------------------------------------
C-0-0h3--3-8-0-0h3--3-8-0--0h3-8--0-0h3--------------
G-0-0h3--3-8-0-0h3--3-8-0--0h3-8--0-0h3--------------
C-0-0h3--3-8-0-0h3--3-8-0--0h3-8--0-0h3--------------

Chorus(Distortion)
E-----------------------------------------------------------
B-----------------------------------------------------------
G-----------------------------------------------------------
C-0-10--8-10--0--10--8--10--0-------------------------------
G-0-10--8-10--0--10--8--10--0-------------------------------
C-0-10--8-10--0--10--8--10--0-------------------------------

For the second chorus, play the above two times

Bridge
E----------------------------------------------------------------
B----------------------------------------------------------------
G----------------------------------------------------------------
C-33333-2-2-0-0-0---3-3-2-2-0-0-0--3-3-2-2-0000-0-0-------------
G-33333-2-2-0-0-0---3-3-2-2-0-0-0--3-3-2-2-0000-0-0-------------
C-33333-2-2-0-0-0---3-3-2-2-0-0-0--3-3-2-2-0000-0-0-------------
                                           ****

Pre-Solo(with effect)
E-----------------------------------------------------------------
B-----------------------------------------------------------------
G----10-12-10------8-10-8------10-12-10------8-10-8---------------
C-----------------------------------------------------------------
G-----------------------------------------------------------------
C-----------------------------------------------------------------

8.SERENITY

Intro:
      x3
E----------------------------------------
B----------------------------------------
G----------------------------------------
D------0------0-----0------0-----0-----0-
A----------------------------------------
D---0----0-------0-------3---3/6---6\\3---
note: when sliding from 3/6 or 63, strike the second note (either 3 or 6)

Then:
E---------------------------------
B---------------------------------
G---------------------------------
D------0------0-----0------0------
A---------------------------------
D---0----0-------0-------3---3/6--


Verse is the intro\'s first part x8


Prechorus:
Guitar 1:
      x3
E----------------------------------------
B----------------------------------------
G----------------------------------------
D------0------0-----0------0-----0-----0-
A----------------------------------------
D---5----5-------5-------8---8\\6---6\\3---

	Then:
E------------------------------------------
B------------------------------------------
G------------------------------------------
D------0------0-----0------0------0------0-
A------------------------------------------
D---5----5-------5-------8---8/10---10\\6---

Prechorus:
Guitar 2:
	x3
E-----3----3-----6------4---1--------
B---3---3------6---6--4---1----------
G------------------------------------
D------------------------------------
A------------------------------------
D------------------------------------

	Then:
E-----3----3-----6------8---4--------
B---3---3------6---6--8---4----------
G------------------------------------
D------------------------------------
A------------------------------------
D------------------------------------


Chorus is Intro/verse and that same thing all the way until the next prechorus

Repeat that prechorus
 
Repeat Chorus

Interlude:
(acoustic)
E-----------0--------------------0-------------------------------------
B------3---------3---------3--------3----------------------------------
G--------2----------2---------2--------2-----------------7-------------
D---0-------------------0-----------------0-----------6--------8---6---
A--------------------------------------------------6-------------------
D----------------------------------------------6-----------------------

E-------------------------------0-------------------0---------------------------------------
B-------------------------3----------3--------3--------3------------------------------------
G----------7-----------------2----------2--------2--------2--------------7------------7-----
D-----6-------8--6-----0-------------------0-----------------0----------6--8-6-----6----8-6-
A---6---6-------------------------------------------------------------6-----------6-6-------
D-------------------------------------------------------------------6-----------------------

Interlude:
(electric)
E--------------------------------------------------
B---3----------------------------------------------
G---2----------------------------------------------
D---0------------------------6-------6-6-6-6-6-6---
A---0------------------------6-------6-6-6-6-6-6---
D---0--------------------0---6-------6-6-6-6-6-6---

E--------------0-----------------------------
B--------------3------------3----------------
G--------------2------------2----------------
D--------------0-------------------------6---
A----------------------------------------6---
D---0------------------0-----------------6---


finish with the chorus
and then the electric guitar plays the low 3 strings all open

9.KEEP AWAY

Tuning DADGBe

Intro:
e|----------------------|
B|----------------------|
G|-7-7-7-7-7-7-7-7-7777-|
D|-x-x-x-x-x-x-x-x-xxxx-|
A|-5-5-5-5-5-5-5-5-5555-|
D|----------------------|

Pre-Verse Riff
E| ----------------------------------------------------------|
B| ----------------------------------------------------------|
G|-----------------------------------------------------------|
D|----0---0---0h3-3-3-3-3--3--3/5-5--5--5-5-5/6-6-6-6-3--0---|
A|-0--0---0---0h3-3-3-3-3--3--3/5-5--5--5-5-5/6-6-6-6-3--0---|
D|----0---0---0h3-3-3-3-3--3--3/5-5--5--5-5-5/6-6-6-6-3--0---|

E|-------------------------------------------------------------|
B|-------------------------------------------------------------|
G|-------------------------------------------------------------|
D|-(0)---0---0---0h3-3-3-3-3--3--3/5-5--5-5-5-5/6-6-6-6-3--0---|
A|-(0)---0---0---0h3-3-3-3-3--3--3/5-5--5-5-5-5/6-6-6-6-3--0---|
D|-(0)---0---0---0h3-3-3-3-3--3--3/5-5--5-5-5-5/6-6-6-6-3--0---|

Verse:
E|-------------------------------------------------------------|
B|-------------------------------------------------------------|
G|-------------------------------------------------------------|
D|-(0)---0---0h3-3-3-3-3--3--x-x-5--5--5-5--5-5/6-6-6-6-3--0---|
A|-(0)---0---0h3-3-3-3-3--3--x-x-5--5--5-5--5-5/6-6-6-6-3--0---|
D|-(0)---0---0h3-3-3-3-3--3--x-x-5--5--5-5--5-5/6-6-6-6-3--0---|

Chorus:

e|-------------------------------------------------------------|
B|-------------------------------------------------------------|
G|-7------7-----5---5--5--5--5--5--5--5--2---2/3-3-3--3-3-3--x-|
D|-7------7-----5---5--5--5--5--5--5--5--2---2/3-3-3--3-3-3--x-|
A|-5------5-----3---3--3--3--3--3--3--3--0---0/1-1-1--1-1-1--x-|
D|-------------------------------------------------------------|

e|--------------------------------------------------------||
B|--------------------------------------------------------||
G|-7------7-----5---5--5--5--5--5--5--5--2--2-------------||
D|-7------7-----5---5--5--5--5--5--5--5--2--2-----12\\----||
A|-5------5-----3---3--3--3--3--3--3--3--0--0-----12\\----||
D|------------------------------------------------12\\----||

e|------------------------------------------------------------------------|
B|------------------------------------------------------------------------|
G|-5-5-2--2---2/3-3-3-3-3-3-3--7--7---5-5-5-5-5-5-5-5-5-2-2--2/3-3-3-3-3--|
D|-5-5-2--2---2/3-3-3-3-3-3-3--7--7---5-5-5-5-5-5-5-5-5-2-2--2/3-3-3-3-3--|
A|-3-3-0--0---0/1-1-1-1-1-1-1--5--5---3-3-3-3-3-3-3-3-3-0-0--0/1-1-1-1-1--|
D|------------------------------------------------------------------------|

e|----------------------------------------------------------------|--0--|
B|----------------------------------------------------------------|--3--|
G|-7------7-----5---5--5--5--5--5--5--5--2--2----2/3-3-3-3-3-5----|--2--|
D|-7------7-----5---5--5--5--5--5--5--5--2--2----2/3-3-3-3-3-5--0-|--0--|
A|-5------5-----3---3--3--3--3--3--3--3--0--0----0/1-1-1-1-1-3--0-|--0--|
D|--------------------------------------------------------------0-|--0--|

Interlude:
e|---------------------------------------------------------|
B|--3--3--3--3----3--3--3--3---3--3--3--3-----3--3--3--3---|
G|--2--2--2--2----1--1--1--1---2--2--2--2-----1--1--1--1--o|
D|--0--0--0--0----0--0--0--0---0--0--0--0-----0--0--0--0--o|
A|---------------------------------------------------------|
D|---------------------------------------------------------|

e|----------------------|-------------------------------------------|
B|----------------------|-------------------------------------------|
G|-7-7-7-7-7-7-7-7-7777-|-10-10101010101010-12-12-12-12-12-12-12-12-|
D|-x-x-x-x-x-x-x-x-xxxx-|--x--x-x-x-x-x-x-x--x--x--x--x--x--x--x--x-|
A|-5-5-5-5-5-5-5-5-5555-|--8--8-8-8-8-8-8-8/10-10-10-10-10-10-10-10-|
D|----------------------|-------------------------------------------|

Key:
 ^ Bend 
p Pull-off
h Hammer-on
*=pinch harmonic

Solo: with Wah
e|----------------------------------------------------------------|
B|----------------------------------------------------------------|
G|-*13^--------x--13^-------13--13^--\---12^-h10-----10--12--10^--|
D|--1/2 bend---x--full---------1/2-------full-----12---------full-|
A|----------------------------------------------------------------|
D|----------------------------------------------------------------|

e|-------------------------------------------------------------------|
B|-------------------------------------------------------------------|
G|--------------------------------------10^--------------------------|
D|-12--10----10------------------------full--12--10----10----10-12^--|
A|--------12----12/h8--8^-\0--0--0------------------12----12---------|
D|--------------------full----------/12------------------------------|

e|------------------------------------10----10h12-10---10-----------(13)-|
B|------------------------------13^------13----------13-----13^hold-(13)-|
G|-----------------------------------------------------------------------|
D|-h10--*12---12---*12---12\--x---------------------------x--------------|
A|--------------------------------------------------------x--------------|
D|-----------------------------------------------------------------------|

e|-----13h17---13^----13^--(13)\-------|
B|-15----------13^----13^--(13)\-------|
G|-------------------------------------|
D|-------------------------------------|
A|-------------------------------------|
D|-------------------------------------|

10.VOODOO

Riff 1:  
D------2-2/3-2-------------- 
A------2-2/3-2-------------- 
F--------------------------- 
C--------------------------- 
G--------------------------- 
D--------------------------- 
 
 
Riff 2: 
D--------------------------- 
A--------------------------- 
F--------------------------- 
C--2---2-2-2-2-2-2-2-------- 
G--2---2-2-2-2-2-2-2-------- 
D--0---0-0-0-0-0-0-0-------- 
       P.M...(Gradually release) 
 
 
Chorus Riff:                                          
D------------------------------------------------------------------ 
A------------------------------------------------------------------ 
F------------------------------------------------------------------ 
C--4---4-4-4-4---2---2---4-4---4-4-4---4-4-4-4---7---7---7-6/7-6\5- 
G--4---4-4-4-4---2---2---4-4---4-4-4---4-4-4-4---7---7---7-6/7-6\5- 
D--2---2-2-2-2---0---0---2-2---2-2-2---2-2-2-2---5---5---5-4/5-4\3- 
  I'm not the . . .  
                                                 _________________ 
              Omit this stuff the first time -->|  
   --------------------------------------------------------------- 
   --------------------------------------------------------------- 
   --------------------------------------------------------------- 
   4-4-4-4-4-4---2---2---4-4---4-4-4---4-4---4---7---7-7\6-6/7-6\5 
   4-4-4-4-4-4---2---2---4-4---4-4-4---4-4---4---7---7-7\6-6/7-6\5 
   2-2-2-2-2-2---0---0---2-2---2-2-2---2-2---2---5---5-5\4-4/5-4\3 
   _____________________________________________________________ 
 
   ------------------------------------------------------------------- 
   ------------------------------------------------------------------- 
   ------------------------------------------------------------------- 
   -4---4-4-4-4---2---2---4-4---4-4-4---4-4-4-4---7---7---7---6/7-6\5- 
   -4---4-4-4-4---2---2---4-4---4-4-4---4-4-4-4---7---7---7---6/7-6\5- 
   -2---2-2-2-2---0---0---2-2---2-2-2---2-2-2-2---5---5---5---4/5-4\3- 
   ___________________________________________ 
                                              | 
   --------------------------------------------------------------- 
   --------------------------------------------------------------- 
   --------------------------------------------------------------- hope u like it.
   4-4-4-4-4-4---2---2---4-4---4-4-4---4-4---4---2---4-4---------- took me 4ever do that ***
   4-4-4-4-4-4---2---2---4-4---4-4-4---4-4---4---2---4-4---------- 
   2-2-2-2-2-2---0---0---2-2---2-2-2---2-2---2---0---2-2---------- 
 
Bridge Riff: 
D--------------------------------2-2/3-2-- 
A--------------------------------2-2/3-2-- 
F----------------------------------------- 
C--2---2-2-2-2-2-2-2-2-2-2-2-2-2---------- 
G--2---2-2-2-2-2-2-2-2-2-2-2-2-2---------- (Last time just keep playing 
D--0---0-0-0-0-0-0-0-0-0-0-0-0-0----------  D5 until the chorus) 
       P.M...(Gradually release) 
 
 
Drop-D Tuning 
 
   Low to High: D A D G B E 
 
Use the same pickup 
 
Riff 1:  
E--------------------------- 
B---------5-5/6-5----------- 
G---------4-4/5-4----------- 
D--------------------------- 
A--------------------------- 
D--------------------------- 
 
 
Riff 2: 
E--------------------------- 
B--------------------------- 
G--------------------------- 
D--0---0-0-0-0-0-0-0-------- 
A--0---0-0-0-0-0-0-0-------- 
D--0---0-0-0-0-0-0-0-------- 
       P.M...(Gradually release) 
 
 
Chorus Riff:                                          
E------------------------------------------------------------------ 
B------------------------------------------------------------------ 
G------------------------------------------------------------------ 
D--2---2-2-2-2---0---0---2-2---2-2-2---2-2-2-2---5---5---5-4/5-4\3- 
A--2---2-2-2-2---0---0---2-2---2-2-2---2-2-2-2---5---5---5-4/5-4\3- 
D--2---2-2-2-2---0---0---2-2---2-2-2---2-2-2-2---5---5---5-4/5-4\3- 
  I'm not the . . . 
                                                 _________________ 
              Omit this stuff the first time -->|  
   --------------------------------------------------------------- 
   --------------------------------------------------------------- 
   --------------------------------------------------------------- 
   2-2-2-2-2-2---0---0---2-2---2-2-2---2-2---2---5---5-5\4-4/5-4\3 
   2-2-2-2-2-2---0---0---2-2---2-2-2---2-2---2---5---5-5\4-4/5-4\3 
   2-2-2-2-2-2---0---0---2-2---2-2-2---2-2---2---5---5-5\4-4/5-4\3 
   ___________________________________________________________________ 
 
   ------------------------------------------------------------------- 
   ------------------------------------------------------------------- 
   ------------------------------------------------------------------- 
   -2---2-2-2-2---0---0---2-2---2-2-2---2-2-2-2---5---5---5---4/5-4\3- 
   -2---2-2-2-2---0---0---2-2---2-2-2---2-2-2-2---5---5---5---4/5-4\3- 
   -2---2-2-2-2---0---0---2-2---2-2-2---2-2-2-2---5---5---5---4/5-4\3- 
   _____________________________________________ 
                                                | 
   --------------------------------------------------------------- 
   --------------------------------------------------------------- 
   --------------------------------------------------------------- 
   2-2-2-2-2-2---0---0---2-2---2-2-2---2-2---2---0---2-2---------- 
   2-2-2-2-2-2---0---0---2-2---2-2-2---2-2---2---0---2-2---------- 
   2-2-2-2-2-2---0---0---2-2---2-2-2---2-2---2---0---2-2---------- 
 
Bridge Riff: 
E----------------------------------------- 
B--------------------------------5-5/6-5-- 
G--------------------------------4-4/5-4-- 
D--0---0-0-0-0-0-0-0-0-0-0-0-0-0---------- 
A--0---0-0-0-0-0-0-0-0-0-0-0-0-0---------- (Last time just keep playing 
D--0---0-0-0-0-0-0-0-0-0-0-0-0-0----------  D5 until the chorus) 
       P.M...(Gradually release)


11.BATALLA DE LOS TAMBORES

Don't Know

12.WHATEVER

Intro:
                 x7       Finish with:
D--------------------------|-------
A----------------10-10-10--|-------
F-(or fade)------13-13-13--|-------
C---h5\\/----0-0------------|--0-0--
G---h5\\/----0-0------------|--0-0--
C---h5\\/----0-0------------|--0-0--
PM          . .               . . 


Verse x8:
D------------------
A--------10-10-10--
F--------13-13-13--
C---0-0------------
G---0-0------------
C---0-0------------
PM  . .

Prechorus:
D--------------------------------------------------
A--------------------------------------------------
F--------h7~------------------h7~------------------
C---0~---h7~-6~---6-6----0~---h7~-10~---6-6--3-3---
G---0~---h5~-6~---6-6----0~---h5~-10~---6-6--3-3---
C---0~-------6~---6-6----0~-------10~---6-6--3-3---
PM                . .                   . .  . .

Chorus:
           X3                Then:
D-----------------------|-------
A-----------------------|-------
F-----------------------|-------
C---0-0---6----5----3---|--0-0--
G---0-0---6----5----3---|--0-0--
C---0-0---6----5----3---|--0-0--
PM                         . .

Verse x11

Prechorus x2

Chorus (1st time):
           X3                Then:
D-----------------------|------------
A-----------------------|------------
F-----------------------|------------
C---0-0---6----5----3---|--3-0--0-0--
G---0-0---6----5----3---|--3-0--0-0--
C---0-0---6----5----3---|--3-0--0-0--
PM                           .  . .

Chorus (2nd time):
Guitar 1:
           X3                Then:
D-----------------------|-----------
A-----------------------|-----------
F-----------------------|-----------
C---0-0---6----5----3---|--0-3-3-3--
G---0-0---6----5----3---|--0-3-3-3--
C---0-0---6----5----3---|--0-3-3-3--
PM                         . . . .

Guitar 2 w/wah x3:
D--------------------------
A--------------------------
F---7~/13~----12~----10~---
C---x~--x~-----x~-----x~---
G---5~/11~----10~-----8~---
C--------------------------

Finish song with verse


Notes:

-In the intro, where you hammer on the 5th fret on the 3 low strings, 
you dont pluck the strings, simply hammer on the top 3 strings 
on the 5th fret and slide up and down for a similiar sound to the real song

-in the prechorus on the second chord, dont strike
those strings either, just hammer on to the two 7\'s 
and the 5 and hold for about a second or two


13.I STAND ALONE

Tuning: Drop C (C G C F A D)

Intro/Chorus
|----------------------------------|
|----------------------------------|
|----------------------------------|
|----------------------------------|
|-------12-12------13-13-----13-13-|
|-0-0-0-------0--0-------0-0-------|x7

Fill
|----------------------------|
|----------------------------|
|----------------------------|
|------------------------11\-|
|-------12-12------13-13-11\-|
|-0-0-0-------0--0-------11\-|

Verse
|-------------------------------------------|
|-------------------------------------------|
|-------------------------------------------|
|-0--x-x-0--x-x-6--6-6--0--x-x-0--x-x-5p3-0-|
|-0--x-x-0--x-x-6--6-6--0--x-x-0--x-x-5p3-0-|
|-0--x-x-0--x-x-6--6-6--0--x-x-0--x-x-5p3-0-|

|-------------------------------------------|
|-------------------------------------------|
|-------------------------------------------|
|-0--x-x-0--x-x-6--6-6--0--x-x-0--x-x--x--x-|
|-0--x-x-0--x-x-6--6-6--0--x-x-0--x-x--x--x-|
|-0--x-x-0--x-x-6--6-6--0--x-x-0--x-x--x--x-|

|--------------------------------------------------------------------|
|--------------------------------------------------------------------|
|--------------------------------------------------------------------|
|-0--x-x-0--x-x-6--6-6--0--x-x-0--x-x-5p3-0--0--x-x-0--x-x-6--6-6-6~-|
|-0--x-x-0--x-x-6--6-6--0--x-x-0--x-x-5p3-0--0--x-x-0--x-x-6--6-6-6~-|
|-0--x-x-0--x-x-6--6-6--0--x-x-0--x-x-5p3-0--0--x-x-0--x-x-6--6-6-6~-|

Chorus is the Intro played 3 times and play the fill at the end.
Play the 2nd Verse with the first 2 riffs the first time then play
the first riff 2 times then play this then play this:
|----------------------------------------------------|
|----------------------------------------------------|
|-7--7-7-7-7--7-7--7-7-10--10-10-10-10--10-10--10-10-|
|-5--5-5-5-5--5-5--5-5-8---8--8--8--8---8--8---8--8--|
|-5--5-5-5-5--5-5--5-5-8---8--8--8--8---8--8---8--8--|
|-5--5-5-5-5--5-5--5-5-8---8--8--8--8---8--8---8--8--|

2nd Chorus
|----------------------------------|
|----------------------------------|
|----------------------------------|
|----------------------------------|
|-------12-12------13-13-----13-13-|
|-0-0-0-------0--0-------0-0-------|x2

|----------------------------------------------------|
|----------------------------------------------------|
|-7--7-7-7-7--7-7--7-7-10--10-10-10-10--10-10--10-10-|
|-5--5-5-5-5--5-5--5-5-8---8--8--8--8---8--8---8--8--|
|-5--5-5-5-5--5-5--5-5-8---8--8--8--8---8--8---8--8--|
|-5--5-5-5-5--5-5--5-5-8---8--8--8--8---8--8---8--8--|
Repeat both these riffs twice.

|----------------------------------|
|----------------------------------|
|----------------------------------|
|----------------------------------|
|-------12-12------13-13-----13-13-|
|-0-0-0-------0--0-------0-0-------|x4

Bridge
|------|
|------|
|------|
|-0~~~-|
|-0~~~-|
|-0~~~-|

|-------------------------|
|-------------------------|
|-------------------------|
|-----5-----5-----0-----0-|
|---3-----3-----0-----0---|
|-3-----3-----0-----0-----|x3 1/2
In the background another guitar has a funny effect on and is doing
pick scrapes and repeats these notes sometimes and other stuff.

|--------------------------------------------------------------------|
|--------------------------------------------------------------------|
|--------------------------------------------------------------------|
|-0--x-x-0--x-x-6--6-6--0--x-x-0--x-x-5p3-0--0--x-x-0--x-x-6--6-6-6~-|
|-0--x-x-0--x-x-6--6-6--0--x-x-0--x-x-5p3-0--0--x-x-0--x-x-6--6-6-6~-|
|-0--x-x-0--x-x-6--6-6--0--x-x-0--x-x-5p3-0--0--x-x-0--x-x-6--6-6-6~-|
There's something funny going on in the background with that weird
effect but I don't know it.

Chorus
|----------------------------------|
|----------------------------------|
|----------------------------------|
|----------------------------------|
|-------12-12------13-13-----13-13-|
|-0-0-0-------0--0-------0-0-------|x4

|----------------------------------------------------|
|----------------------------------------------------|
|-7--7-7-7-7--7-7--7-7-10--10-10-10-10--10-10--10-10-|
|-5--5-5-5-5--5-5--5-5-8---8--8--8--8---8--8---8--8--|
|-5--5-5-5-5--5-5--5-5-8---8--8--8--8---8--8---8--8--|
|-5--5-5-5-5--5-5--5-5-8---8--8--8--8---8--8---8--8--|

|----------------------------------|
|----------------------------------|
|----------------------------------|
|----------------------------------|
|-------12-12------13-13-----13-13-|
|-0-0-0-------0--0-------0-0-------|x2

|----------------------------------------------------|
|----------------------------------------------------|
|-7--7-7-7-7--7-7--7-7-10--10-10-10-10--10-10--10-10-|
|-5--5-5-5-5--5-5--5-5-8---8--8--8--8---8--8---8--8--|
|-5--5-5-5-5--5-5--5-5-8---8--8--8--8---8--8---8--8--|
|-5--5-5-5-5--5-5--5-5-8---8--8--8--8---8--8---8--8--|

|----------------------------------|
|----------------------------------|
|----------------------------------|
|----------------------------------|
|-------12-12------13-13-----13-13-|
|-0-0-0-------0--0-------0-0-------|x4

|----------------------------|
|----------------------------|
|----------------------------|
|-0-0-0-7-7-0--0-8-8-0-0-8-8-|
|-0-0-0-7-7-0--0-8-8-0-0-8-8-|
|-0-0-0-7-7-0--0-8-8-0-0-8-8-|x4
comments
We did not receive enough feedback on this tab! Please rate:
print report bad tab
1 2 3 4 5
4 comments total. Showing first comments.
0 reply
rin wrote on December 14 2004, 12:00 am

It was nice of you to put this together, but i noticed that you've taken other people's work. Please give credit in the future. Also, some of the songs still have errors, though some editing has been done. and yes, i am bored, lol

0 reply
scarecrow55 wrote on July 12 2005, 12:00 am

hey, can u add the little part from the DVD that Sully plays at the beginning of Re-Align?

0 reply
Metalsmack355 wrote on July 7 2006, 07:03 pm

by the way the main tune for Voodoo goes like this:


eb|----------------|
Bb|----------------|
Gb|-11-11-12-11----|
Db|-11-11-12-11----|
Ab|--9--9-10--9----|
Eb|----------------|

I want to post or [tab]
guest
You may want to rate the tab now too:
select rating
Please do not post tabs as comments. Select "correction" instead!