Oops, an error
Loading. Please wait.

Changes Tab

ver2
ver2

Album

Whole song

Interactive

More versions @911Tabs.com
6,397 views 3 this week
2 commentsread comments
1 2 3 4 5
accurate
x 6
Autoscroll
+/-
esc
set tempo
stop
Contributor
Hey! There's an official Ultimate Guitar app which is ideal
for learning songs when you're away from computer. Get the app
WARNING: You are trying to view
                                    content from Ultimate-Guitar.com
                                    in an unauthorized application,
                                    which is prohibited.

                                    Please use an official Ultimate
                                    Guitar Tabs application for iPhone,
                                    iPad or Android to access legitimate
                                    chords, guitar, bass, and drum tabs
                                    from Ultimate-Guitar.com database.

                                    Type "ultimate guitar tabs" in Apple
                                    App Store's or Android Market's
                                    search to find the application.
Band- Godsmack
Album- Faceless
Song- Changes
Tuning- Drop D

Intro(x2; on second time, guitar 2 enters):
   Guitar 1:
E |--------------------|----------------------|---------------|---------------|
B |--------------------|----------------------|---------------|---------------|
G |--------------------|----------------------|---------------|---------------|
D |--------------------|----------------------|---------------|---------------|
A |--------------------|----------------------|---------------|---------------|
D |0-10-12-0-10-12-0-10|-12-0-10-12-0-10-12-8~|-0-8-0-8-10-0-7|8-0-5-7-0-3-5-5|

E |--------------------|----------------------|------------------|--------------|
B |--------------------|----------------------|------------------|--------------|
G |--------------------|----------------------|------------------|--------------|
D |--------------------|----------------------|------------------|--------------|
A |--------------------|----------------------|----------------7~|---5-7-0-3-5-5|
D |0-10-12-0-10-12-0-10|-12-0-10-12-0-10-12-10|-8-0-8-0-8-10-0-7~|-0-5-7-0-3-5-5|

   Intro:
   Guitar 2:
E |---------------|-----------------|----------------|----------------|
B |---------------|-----------------|----------------|----------------|
G |7-7-7-7-7-7-7-7|7-7-7-7-7-7-7-10~|1010101010101010|9-9-9-9-9-9-9-9-|
D |x-x-x-x-x-x-x-x|x-x-x-x-x-x-x-x--|x-x-x-x-x-x-x-x-|x-x-x-x-x-x-x-x-|
A |5-5-5-5-5-5-5-5|5-5-5-5-5-5-5-8~-|8-8-8-8-8-8-8-8-|7-7-7-7-7-7-7-7-|
D |---------------|-----------------|----------------|----------------|

E |---------------|---------------|---------------|---------------|
B |---------------|---------------|---------------|---------------|
G |7-7-7-7-7-7-7-7|5-5-5-5-5-5-5-5|3-3-3-3-3-3-3-5|5-5-5-5-5-5-5-7|
D |x-x-x-x-x-x-x-x|x-x-x-x-x-x-x-x|x-x-x-x-x-x-x-x|x-x-x-x-x-x-x-x|
A |5-5-5-5-5-5-5-5|5-5-5-5-5-5-5-3|1-1-1-1-1-1-1-3|3-3-3-3-3-3-3-5|
D |---------------|---------------|---------------|---------------|

   Post-Intro:
   Guitar 1:
E |---------------|------------------|------------------|--------------------|
B |---------------|------------------|------------------|--------------------|
G |---------------|------------------|------------------|-----------8-8-8-8-8|
D |---------------|------------------|------------------|-----------7-7-7-7-7|
A |0~~~~~~~~~~~~~~|(0)~~~~~~~~~~~~~~~|(0)~~~~~~~~~~~~~~~|(0)~~~~~~~~6-6-6-6-6|
D |0~~~~~~~~~~~~~~|(0)~~~~~~~~~~~~~~~|(0)~~~~~~~~~~~~~~~|(0)~~~~~~~~---------|
   Guitar 2(Clean/Acoustic):
E |---------------|------------------|------------------|--------------------|
B |---------------|------------------|------------------|--------------------|
G |---------------|------------------|------------------|--------------------|
D |-----0-----0---|--0--------0------|----0-------0-----|----------0---------|
A |----0-0---0----|0---0----3---3----|--0---0---3-------|------0-------------|
D |--0-----6----0-|-------6----------|0-------6------0~~|--------------------|
   Guitar 2:(Distorted):                              
E |---------------|------------------|------------------|--------------------|
B |---------------|------------------|------------------|--------------------|
G |7~~~~~~~~~~~~~~|~~~~~~~~~~~~~~~~~~|~~~~~~~~~~~~~~~~~~|--------------------|
D |x--------------|------------------|------------------|--------------------|
A |5~~~~~~~~~~~~~~|~~~~~~~~~~~~~~~~~~|~~~~~~~~~~~~~~~~~~|--------------------|
D |---------------|------------------|------------------|--------------------|

Verse 1:
   Guitar 1:
E |--------------|--------------|---------------|------------|--------------|
B |--------------|--------------|---------------|------------|--------------|
G |--------------|--------------|---------------|------------|--------------|
D |--------------|--------------|---------------|------------|--------------|
A |---6-----6----|---6-----3-6-5|----6-----6----|-6-----1----|---6-----6----|
D |0--6h0-0-6h0-0|-0-6h0-0-3-6-5|0-0-6h0-0-6h0-0|-6h0-0-1--00|0--6h0-0-6h0-0|
PM *      *     *  *     *       * *     *     *      *    ** *      *     *
                 
E |--------------|--------------|---------------|---------------|
B |--------------|--------------|---------------|---------------|
G |--------------|----------8-8\|---------------|---------------|
D |--------------|----------7-7\|---------------|---------------|
A |----6-----6---|---6------6-6\|---6-----6-----|----6-----3-6-5|
D |0--6h0-0-6h0-0|-0-6h0-0------|0--6h0-0-6h0-0-|0-0-6h0-0-3-6-5|
PM  *      *    *  *     *       *      *     *  * *     *

E |---------------|-------------|----------------|--------------|
B |---------------|-------------|----------------|--------------|
G |---------------|-------------|----------------|--------------|
D |---------------|-------------|----------------|--------------|
A |----6-----6----|---6-----1---|---6------------|---6---------8|
D |0-0-6h0-0-6h0-0|-0-6h0-0-1-00|0--6h0-0-6h0-0--|-0-6h0-0-0-0-8|
PM * *     *     *  *     *   ** *      *     *    *     * * *

E |-------------|------------------|
B |-------------|------------------|
G |----------10~|~10101010---------|
D |----------10~|~10101010-10-10-10|
A |--8-8-8-8--8~|~-8-8-8-8-10-10-10|
D |--8-8-8-8----|----------10-10-10|

Chorus(guitar 2 comes in 2nd time):
   Guitar 1:
E |--------------------|----------------------|---------------|---------------|
B |--------------------|----------------------|---------------|---------------|
G |--------------------|----------------------|---------------|---------------|
D |--------------------|----------------------|---------------|---------------|
A |--------------------|----------------------|---------------|---------------|
D |0-10-12-0-10-12-0-10|-12-0-10-12-0-10-12-8~|-0-8-0-8-10-0-7|8-0-5-7-0-3-5-5|

   Guitar 1:
E |--------------------|----------------------|------------|
B |--------------------|----------------------|------------|
G |--------------------|----------------------|------------|
D |--------------------|----------------------|------------|
A |--------------------|----------------------|-8~~~~~~~~~7|
D |0-10-12-0-10-12-0-10|-12-0-10-12-0-10-12-10|-8~~~~~~~~~7|
   Guitar 2:
E |---------------|----------------|-------|
B |---------------|----------------|-------|
G |7-7-7-7-7-7-7-7|7-7-7-7-7-7-7-7-|10~~~~9|
D |x-x-x-x-x-x-x-x|x-x-x-x-x-x-x-x-|x-----x|
A |5-5-5-5-5-5-5-5|5-5-5-5-5-5-5-5-|8~~~~~7|
D |---------------|----------------|-------|

   Guitar 1:
E |-----------|--------------|--------------|--------------|------TACET-|
B |-----------|--------------|--------------|--------------|------TACET-|
G |-----------|--------------|----------7-7\|--------------|------TACET-|
D |-----------|--------------|----------7-7\|--------------|------TACET-|
A |------0-3-3|---6-----6----|---6------6-6\|---6-----6----|---6--TACET-|
D |~~~~~~0-3-3|0--6h0-0-6h0-0|-0-6h0-0------|0--6h0-0-6h0-0|-0-6--TACET-|
PM             *      *     *  *     *       *      *     *  *

Verse 2:

   Guitar 1:
E |--------------|--------------|---------------|------------|--------------|
B |--------------|--------------|---------------|------------|--------------|
G |--------------|--------------|---------------|------------|--------------|
D |--------------|--------------|---------------|------------|--------------|
A |---6-----6----|---6-----3-6-5|----6-----6----|-6-----1----|---6-----6----|
D |0--6h0-0-6h0-0|-0-6h0-0-3-6-5|0-0-6h0-0-6h0-0|-6h0-0-1--00|0--6h0-0-6h0-0|
PM *      *     *  *     *       * *     *     *      *    ** *      *     *


E |--------------|---------------|--------------|------------------|
B |--------------|---------------|--------------|------------------|
G |--------------|---------------|----------10~|~10101010----------|
D |--------------|---------------|----------10~|~10101010--10-10-10|
A |---6-----6----|---6---------8-|--8-8-8-8--8~|~-8-8-8-8--10-10-10|
D |0--6h0-0-6h0-0|-0-6h0-0-0-0-8-|--8-8-8-8----|-----------10-10-10|
PM *      *     *  *     * * *

E |--------------|--------------|---------------|------------|--------------|
B |--------------|--------------|---------------|------------|--------------|
G |--------------|--------------|---------------|------------|--------------|
D |--------------|--------------|---------------|------------|--------------|
A |---6-----6----|---6-----3-6-5|----6-----6----|-6-----1----|---6-----6----|
D |0--6h0-0-6h0-0|-0-6h0-0-3-6-5|0-0-6h0-0-6h0-0|-6h0-0-1--00|0--6h0-0-6h0-0|
PM *      *     *  *     *       * *     *     *      *    ** *      *     *


E |--------------|---------------|-------------|-------------------|
B |--------------|---------------|-------------|-------------------|
G |--------------|---------------|----------10~|~10101010----------|
D |--------------|---------------|----------10~|~10101010--10-10-10|
A |---6-----6----|---6---------8-|--8-8-8-8--8~|~-8-8-8-8--10-10-10|
D |0--6h0-0-6h0-0|-0-6h0-0-0-0-8-|--8-8-8-8----|-----------10-10-10|
PM *      *     *  *     * * *

Chorus 2:
   Guitar 1(x2):
E |--------------------|----------------------|---------------|---------------|
B |--------------------|----------------------|---------------|---------------|
G |--------------------|----------------------|---------------|---------------|
D |--------------------|----------------------|---------------|---------------|
A |--------------------|----------------------|---------------|---------------|
D |0-10-12-0-10-12-0-10|-12-0-10-12-0-10-12-8~|-0-8-0-8-10-0-7|8-0-5-7-0-3-5-5|

   Guitar 2(x4):
E |---------------|-----------------|----------------|----------------|
B |---------------|-----------------|----------------|----------------|
G |7-7-7-7-7-7-7-7|7-7-7-7-7-7-7-10~|1010101010101010|9-9-9-9-9-9-9-9-|
D |x-x-x-x-x-x-x-x|x-x-x-x-x-x-x-x--|x-x-x-x-x-x-x-x-|x-x-x-x-x-x-x-x-|
A |5-5-5-5-5-5-5-5|5-5-5-5-5-5-5-8~-|8-8-8-8-8-8-8-8-|7-7-7-7-7-7-7-7-|
D |---------------|-----------------|----------------|----------------|

Interlude:
   Guitar 1(x7; hit note once):
E |---------------|
B |---------------|
G |---------------|
D |---------------|
A |0~~~~~~~~~~~~~~|
D |0~~~~~~~~~~~~~~|
   Guitar 2(Clean/Acoustic) x3:
E |---------------|------------------|------------------|--------------------|
B |---------------|------------------|------------------|--------------------|
G |---------------|------------------|------------------|--------------------|
D |-----0-----0---|--0--------0------|----0-------0-----|----0-----------0---|
A |----0-0---0----|0---0----3---3----|--0---0---3-------|-0-----0-----3------|
D |--0-----6----0-|-------6----------|0-------6------0~~|----------6--------3|

   Guitar 2:                              
E |---------------|------------------|------------------|--------------------|
B |---------------|------------------|------------------|--------------------|
G |7~~~~~~~~~~~~~~|~~~~~~~~~~~~~~~~~~|~~~~~~~~~~~~~~~~~~|--------------------|
D |x--------------|------------------|------------------|--------------------|
A |5~~~~~~~~~~~~~~|~~~~~~~~~~~~~~~~~~|~~~~~~~~~~~~~~~~~~|--------------------|
D |---------------|------------------|------------------|--------------------|
 
   Post-Interlude:
   Guitar 1(w/wah):
E |------------|----------|--------------------|------------------|
B |------------|----------|5-------5-------5---|--5-----5------5--|
G |--5/7~~~~~~~|--7\5~~~~7|--7-------7--------7|-----7----7------7|
D |------------|----------|--------------------|------------------|
A |------------|----------|--------------------|------------------|
D |------------|----------|--------------------|------------------|
HOLD                       ****************************************

Guitar Solo:

   Guitar 1:
E |----------------------|------------------|-------------|------------------|
B |-12^1===(12)=(12)=(12)|14-14-12h10-12-12v|---12^1r-----|---12^1---12h10---|
G |----------------------|------------------|-------------|----------------12|
D |----------------------|------------------|-------------|------------------|
A |----------------------|------------------|-------------|------------------|
D |----------------------|------------------|-------------|------------------|

E |--------1010---------------|--------10-----------------------------|
B |-13^1r~~----13h10-13-----13|10-13^1----13h10---10--10--------------|
G |----------------------13---|-----------------13--13--12h10--10-12^1|
D |---------------------------|------------------------------12-------|
A |---------------------------|---------------------------------------|
D |---------------------------|---------------------------------------|

E |----------------------10----------------|---------------------------|
B |10-13-10--10-13h10--13--10----------10--|---------------------------|
G |--------13--------12-----12-10-12-13--13|12-13-12h10--10h12^1--10v~~|
D |----------------------------------------|-----------12--------------|
A |----------------------------------------|---------------------------|
D |----------------------------------------|---------------------------|

E |-15^r==(15)=(15)=(15)|(15)=15=15h13-15v---12-13|-12-15-12-12-13-12-13|
B |---------------------|-------------------------|---------------------|
G |---------------------|-------------------------|---------------------|
D |---------------------|-------------------------|---------------------|
A |---------------------|-------------------------|---------------------|
D |---------------------|-------------------------|---------------------|

E |---------13------13----13|------------------------|---0-0---20^1---------------|
B |--15^1-----15^1----15^1--|15^1.5r-----13h15vv-----|---0-0--------20^0.5r-18--18|
G |-------------------------|---------14-------------|------------------------19--|
D |-------------------------|------------------------|----------------------------|
A |-------------------------|------------------------|----------------------------|
D |-------------------------|------------------------|----------------------------|
                                     
E |----------------------------------------|---------------------|
B |20^1--10--10----------------------------|---------------------|
G |--------13--13-12-13-12h10--10-12^1-10vv|~~-----------10\~~---|
D |--------------------------12------------|-----12h10---10\~~---|
A |----------------------------------------|----------12---------|
D |----------------------------------------|---------------------|
Delay                                                    ********

Interlude:

    Guitar 1.
E |--------------------|---------------------|--------------|---------------|
B |--------------------|---------------------|--------------|---------------|
G |--------------------|---------------------|--------------|---------------|
D |--------------------|---------------------|--------------|---------------|
A |--------------------|---------------------|--------------|---------------|
D |0-10-12-0-10-12-0-10|12-0-10-12-0-10-12-8~|0-8-0-8-10-0-7|8-0-5-7-0-3-5-5|

   Guitar 1:
E |--------------------|---------------------|---------------|---------------|
B |--------------------|---------------------|---------------|---------------|
G |--------------------|---------------------|---------------|---------------|
D |--------------------|---------------------|---------------|---------------|
A |--------------------|---------------------|8~~~~~~~~~~~7~~|~~~~~~~~~~~~~~~|
D |0-10-12-0-10-12-0-10|12-0-10-12-0-10-12-10|8~~~~~~~~~~~7~~|~~~~~~~~~~~~~~~|
   Guitar2:
E |--------------------|---------------------|---------------|---------------|
B |--------------------|---------------------|---------------|---------------|
G |--------------------|---------------------|10\-10\-10\-10\|10\-10\-10\-10\|
D |--------------------|---------------------|10\-10\-10\-10\|10\-10\-10\-10\|
A |--------------------|---------------------|---------------|---------------|
D |--------------------|---------------------|---------------|---------------|
Panning                                       *******************************

Chorus: 
   Guitar 1(x2):
E |--------------------|----------------------|---------------|---------------|
B |--------------------|----------------------|---------------|---------------|
G |--------------------|----------------------|---------------|---------------|
D |--------------------|----------------------|---------------|---------------|
A |--------------------|----------------------|---------------|---------------|
D |0-10-12-0-10-12-0-10|-12-0-10-12-0-10-12-8~|-0-8-0-8-10-0-7|8-0-5-7-0-3-5-5|

   Guitar 2(x4):
E |---------------|-----------------|----------------|----------------|
B |---------------|-----------------|----------------|----------------|
G |7-7-7-7-7-7-7-7|7-7-7-7-7-7-7-10~|1010101010101010|9-9-9-9-9-9-9-9-|
D |x-x-x-x-x-x-x-x|x-x-x-x-x-x-x-x--|x-x-x-x-x-x-x-x-|x-x-x-x-x-x-x-x-|
A |5-5-5-5-5-5-5-5|5-5-5-5-5-5-5-8~-|8-8-8-8-8-8-8-8-|7-7-7-7-7-7-7-7-|
D |---------------|-----------------|----------------|----------------|

Post-Chorus:
 Guitar 1:
E |-------10-----10----|--10-10---10---10-13^1|~~~~~~13vv|--13-15^1~~15^1|
B |--13^1---13^1---13^1|~----13^1-13^1--------|----------|/15------------|
G |--------------------|----------------------|----------|---------------|
D |--------------------|----------------------|----------|---------------|
A |--------------------|----------------------|----------|---------------|
D |--------------------|----------------------|----------|---------------|

E |15^1r~13---------------|----------------------------|
B |--------15v~\13-10-----|----------------------------|
G |------------------13-10|12-10vv~~12h10--------------|
D |-----------------------|--------------12-10---------|
A |-----------------------|-------------------12-11-10\|
D |-----------------------|----------------------------|
   
   Guitar 2:
E |--------------------|---------------------|--------------|---------------|
B |--------------------|---------------------|--------------|---------------|
G |--------------------|---------------------|--------------|---------------|
D |--------------------|---------------------|--------------|---------------|
A |--------------------|---------------------|--------------|---------------|
D |0-10-12-0-10-12-0-10|12-0-10-12-0-10-12-8~|0-8-0-8-10-0-7|8-0-5-7-0-3-5-5|

E |--------------------|---------------------|---------------|---------------|
B |--------------------|---------------------|---------------|---------------|
G |--------------------|---------------------|---------------|---------------|
D |--------------------|---------------------|---------------|---------------|
A |--------------------|---------------------|8~~~~~~~~~~~7~~|~~~~~~~~~~~~~~~|
D |0-10-12-0-10-12-0-10|12-0-10-12-0-10-12-10|8~~~~~~~~~~~7~~|~~~~~~~~~~~~~~~|

Outro:

   Guitar 1(x7; hit note once):
E |-----|
B |-----|
G |-----|
D |-----|
A |0~~~~|
D |0~~~~|

   Guitar 2(Clean/Acoustic) x2:
E |---------------|------------------|------------------|--------------------|
B |---------------|------------------|------------------|--------------------|
G |---------------|------------------|------------------|--------------------|
D |-----0-----0---|--0--------0------|----0-------0-----|----0-----------0---|
A |----0-0---0----|0---0----3---3----|--0---0---3-------|-0-----0-----3------|
D |--0-----6----0-|-------6----------|0-------6------0~~|----------6--------3|

Even the solo is included.ENJOY!!!
comments
print report bad tab
2 comments total.
0 reply
johnm2k6 wrote on December 5 2006, 01:41 pm

Great tab. I'm surprised that the solo was even tabbed. 5 stars

0 reply
johnm2k6 wrote on February 11 2007, 12:41 pm

actually I just notice that you put the start of the solo on the B string 12th fret but it should be G string 12th fret. other than that the rest is pretty good

I want to post or [tab]
guest
You may want to rate the tab now too:
select rating
Please do not post tabs as comments. Select "correction" instead!