Oops, an error
Loading. Please wait.

Faceless Tab

ver1
ver1

Album

Whole song

Interactive

More versions @911Tabs.com
10,295 views 3 this week
5 commentsread comments
1 2 3 4 5
excellent!
x 6
Autoscroll
+/-
esc
set tempo
stop
Contributor
Hey! There's an official Ultimate Guitar app which is ideal
for learning songs when you're away from computer. Get the app
WARNING: You are trying to view
                                    content from Ultimate-Guitar.com
                                    in an unauthorized application,
                                    which is prohibited.

                                    Please use an official Ultimate
                                    Guitar Tabs application for iPhone,
                                    iPad or Android to access legitimate
                                    chords, guitar, bass, and drum tabs
                                    from Ultimate-Guitar.com database.

                                    Type "ultimate guitar tabs" in Apple
                                    App Store's or Android Market's
                                    search to find the application.
Band- Godsmack
Album- Faceless
Tuning(whole album)-Drop D

This is the heaviest Godsmack album yet.I can't wait until their next album.ENJOY!!!

1.Straight Out Of Line
2.Faceless
3.Changes
4.Make Me Believe
5.I Stand Alone
6.Re-Align
7.I F****** Hate You
8.Releasing The Demons
9.Dead And Broken
10.I Am
11.The Awakening
12.Serenity

1.STRAIGHT OUT OF LINE

Intro: (w/dist. and delay) Guitar 1
D|--------------------------------------------------------------|
A|--------------------------------------------------------------|
F|--------------------------------------------------------------|
C|--------------------------------------------------------------|
G|--7~~~~~(7)\---------10----------9--------------12-------7----|
C|--------------------------------------------------------------|
 vol swells....... with feedback

D|---------------------------------------------------|
A|---------------------------------------------------|
F|---------------------------------------------------|
C|---------------------------------------------------|
G|---10~~~~~~~~~-------------9--~~~~~~~(9)-----------|
C|---------------------------------------------------|

Guitar 2
D|-------------------------------------------------------------------|
A|-------------------------------------------------------------------|
F|-------------------------------------------------------------------|
C|-------------------------------------------------------------------|
G|-------------------------------------------------------------------|
C|--0-2-2-2-0-0-0-2-2-2-0-0-0-2-2-3--0-2-2-2-0-0-0-2-2-2-0-0-0-2-2-3-|
pm...................................................................

Guitar 2
D|--------------------------------------------------------|
A|--------------------------------------------------------|
F|--------------------------------------------------------|
C|--------------------------------------------------------|
G|--------------------------------------------------------|
C|--0-2-2-2-0-0-0-2-2-2-0-0-0-2-2-3--0-2-2-2-0-0-0-2-2-2--|
pm........................................................

Heavy Part
D|------------------------------------|
A|------------------------------------|
F|------------------------------------|
C|--0--2-2----0--2-2-2--0--0--3--3----|
G|--0--2-2----0--2-2-2--0--0--3--3----|
C|--0--2-2----0--2-2-2--0--0--3--3----|

D|------------------------------------------------------------------|
A|------------------------------------------------------------------|
F|------------------------------------------------------------------|
C|-0--2--2--2p0--0--2--2--2p0--0--2--2--2p0--0--2--2--2p0--0--2-2-3-|
G|-0--2--2--2p0--0--2--2--2p0--0--2--2--2p0--0--2--2--2p0--0--2-2-3-|
C|-0--2--2--2p0--0--2--2--2p0--0--2--2--2p0--0--2--2--2p0--0--2-2-3-|

D|------------------------------------------|
A|------------------------------------------|
F|------------------------------------------|
C|--0---2--2--2p0--0--2--2--2--0--0--3----0-|
G|--0---2--2--2p0--0--2--2--2--0--0--3----0-|
C|--0---2--2--2p0--0--2--2--2--0--0--3----0-|


FIll:
D|------------------------------|
A|------------------------------|
F|------------------------------|
C|---0h2-2-2-0-0-0h2-2-2-0-0----|
G|---0h2-2-2-0-0-0h2-2-2-0-0----|
C|---0h2-2-2-0-0-0h2-2-2-0-0----|
pm(with feedback)...............

Verses: w/panning
D|-------------------------------------|---------------------|
A|-------------------------------------|---------------------|
F|---9--x--9---x--9---x-9----x-9--x-9-o|-9---x-9-x9-x-9-x----|
C|------------------------------------o|---------------------|
G|-------------------------------------|---------------------|
C|-------------------------------------|---------------------|

D|-------------------------------------|---------------------|
A|-------------------------------------|---------------------|
F|---9--x9h9-x-9----x-9-----xxxxx-----o|-9---x-9h9-x9-x-9-9--|
C|------------------------------------o|---------------------|
G|-------------------------------------|---------------------|
C|-------------------------------------|---------------------|

Chorus: Listen for exact strums
D|---------------------------------------------------------------------|
A|--------------------------------3~--3-33-3-3-3-3-3-------------------|
F|--------------------------------2~--2-22-2-2-2-2-2-------------------|
C|-2~--222-222--5~-5-555-5-555-5--0~--0-00-0-0-0-0-0--3--3--3-3--222-0-|
G|-2~--222-222--5~-5-555-5-555-5--0~--0-00-0-0-0-0-0--3--3--3-3--222-0-|
C|-2~--222-222--5~-5-555-5-555-5--0~--0-00-0-0-0-0-0--3--3--3-3--222-0-|

continued:
D|-------------------------------------------------------------|
A|----------------------------------3---3-333-3333-3--3-3------|
F|----------------------------------2---2-222-2222-2--2-2------|
C|--2--22-222-2-2/5--55-55555-55-5--0---0-000-0000-0--0-0--5---|
G|--2--22-222-2-2/5--55-55555-55-5--0---0-000-0000-0--0-0--3---|
C|--2--22-222-2-2/5--55-55555-55-5--0---0-000-0000-0--0-0--3---|

Fill:
D|----------------------------|
A|----------------------------|
F|----------------------------|
C|--5--------5---------5------|
G|--3--------3---------3------|
C|--3---3-3--3---3-3---3------|
pm      ....     ....

D|------------------------------------------------------|
A|------------------------------------------------------|
F|------------------------------------------------------|
C|-0--2-2--2-0-0--2-2--0---0--3----0-2-2-0-0-0h2-2h3----|
G|-0--2-2--2-0-0--2-2--0---0--3----0-2-2-0-0-0h2-2h3----|
C|-0--2-2--2-0-0--2-2--0---0--3----0-2-2-0-0-0h2-2h3----|

Interlude: with wah & Ebow
D|-------------------------------------------------------------|
A|-------------------------------------------------------------|
F|---9-\------9-----(9)~~~-----------------------------------x-|
C|---8-\------8--------------------------------------------x---|
G|-------------------------------x*-----x/---------------------|
C|----------------------------5--x*-------------x/8h(8)/9\-----|

D|-------------------------------------------------------------|
A|-------------------------------------------------------------|
F|------------------------------------9-9---9---9-9--9---------|
C|----------------------------x---8---8-8---8---9-9--9---------|
G|--6--7---7~~~~~--(7)----x------------------------------------|
C|-------------------------------------------------------------|

Guitar Solo: with wah & slide
D|-/0----0--0--0---0--0-0-0--0--0---0----0----0----0--0---0----|
A|--5----5--5--5---5--5/8-8--8--8--11---11---11---11-11--11----|
F|-------------------------------------------------------------|
C|-------------------------------------------------------------|
G|-------------------------------------------------------------|
C|-------------------------------------------------------------|

continued:
D|---15^-------12--------------------------------------------------|
A|--full----------15h1215h12----12---------------------------------|
F|---------------------------15----15-14-15 14h12-----12h14-12-----|
C|-------------------------------------------------14--------------|
G|-----------------------------------------------------------------|
C|-----------------------------------------------------------------|

continued:
D|---------15^----(15)----15^-(15)---12--1215h12---0-------15-------------|
A|--0--0--full------------15^-(15)-----15-------15---15/17----17(17)\5/---|
F|-----------------------half---------------------------------------------|
C|------------------------------------------------------------------------|
G|------------------------------------------------------------------------|
C|------------------------------------------------------------------------|

D|----15---17-----15--17----15----17--------15---18----15-15----18-----22^-|
A|-19---19----19----19--1919---19-----11/17----17---17-17----17---17-------|
F|-------------------------------------------------------------------------|
C|-------------------------------------------------------------------------|
G|-------------------------------------------------------------------------|
C|-------------------------------------------------------------------------|

Fill:
D|---------------------|
A|---------------------|
F|---------------------|
C|--3-33-33-3333-3333--|
G|--3-33-33-3333-3333--|
C|--3-33-33-3333-3333--|
pm    .............

Outro:
D|------------------------------------------------------------------------------|
A|------------------------------------------------------------------------------|
F|------------------------------------------------------------------------------|
C|-0-2-2-0-0--2-2-0-0--3---0-2-2-2-0-0-2-2-0-------2h3--0-2-2-2-0-0--2-2-0-0-3--|
G|-0-2-2-0-0--2-2-0-0--3---0-2-2-2-0-0-2-2-0-------2h3--0-2-2-2-0-0--2-2-0-0-3--|
C|-0-2-2-0-0--2-2-0-0--3---0-2-2-2-0-0-2-2-0--12\--2h3--0-2-2-2-0-0--2-2-0-0-3--|

D|--------------------------------------------------------------------------|
A|--------------------------------------------------------------------------|
F|--------------------------------------------------------------------------|
C|-0--2-2-0-0--2-2--0-0-2-2-3---0-2-2-0-0--2-2--0-0--3----------------------|
G|-0--2-2-0-0--2-2--0-0-2-2-3---0-2-2-0-0--2-2--0-0--3----------------------|
C|-0--2-2-0-0--2-2--0-0-2-2-3---0-2-2-0-0--2-2--0-0--3--0-2-2-2-0-0-0-2-2-3-|
pm                                                       ...................

2.FACELESS

Intro Guitar 1:
     Part 1 x5:
E-----------------------|-----------------|
B-----------------------|-----------------|
G-----------------------|-----------------|
D-----------------------|-----------------|
A-------13-----13---13--|--3-1-0-1-0-1-3--|
D---0-0-13-0-0-13-0-13--|--3-1-0-1-0-1-3--|
         *      *    *

Guitar 2:
E-------------------------------------------------------------------|
B-(harm)------------------------------------------------------------|
G---3--7-7-7-7-7-7-7-7-7-7-7-7/13-13-13-13-13-13-13-13-13-13-13-13--|
D------x-x-x-x-x-x-x-x-x-x-x-x--x--x--x--x--x--x--x--x--x--x--x--x--|
A------5-5-5-5-5-5-5-5-5-5-5-5/11-11-11-11-11-11-11-11-11-11-11-11--|
D-------------------------------------------------------------------|

Then x2:
Both Guitars but Gtr 1 still has wah:
     Part 1 x3:               Then:
E-----------------------|------------------|
B-----------------------|------------------|
G-----------------------|------------------|
D-----------------------|------------------|
A---0-0-13-0-0-13-0-13--|---3-1-0-1-0-1-3--|
D---0-0-13-0-0-13-0-13--|---3-1-0-1-0-1-3--|


Verse x4:
    Part 1 x3:                       Then:
E--------------------------|---------------------------|
B--------------------------|---------------------------|
G--------------------------|---------------------------|
D--------------------------|---------------------------|
A--------------------------|------------------15---13--|
D---0--0-0-0--0--0-13--13--|--0-0-0--0--0--0--15-0-13--|
PM  .  . . .  .  .  *   *     . . .  .  .  .   *    *


Prechorus:
E--------------------------------------------------------------------------|
B--------------------------------------------------------------------------|
G--------------------------------------------------------------------------|
D---7-7-7-7-7-7-7-7-7-7-7-7-7-7-7-7-10-10-10-10-10-10-10-10\---------------|
A---5-5-5-5-5-5-5-5-5-5-5-5-5-5-5-5--8--8--8--8--8--8--8--8\-1-1-1-1-1-1-1-|
D---5-5-5-5-5-5-5-5-5-5-5-5-5-5-5-5--8--8--8--8--8--8--8--8\-1-1-1-1-1-1-1-|
                          * * *            *  *  *


Chorus:
E----------------------------------------------------------------------|
B----------------------------------------------------------------------|
G----------------------------------------------------------------------|
D---------------------------------------5--5-5--5-5--5-8-------8-8-8-8-|
A---0-0-13-0-0-13-0-13--0-0-13-0-0-13-0-5--5-5--5-5--5-8-8-8-8-8-8-8-8-|
D---0-0-13-0-0-13-0-13--0-0-13-0-0-13-0-5--5-5--5-5--5-8-8-8-8-8-8-8-8-|
PM                                                       . . .

E-----------------------------------------------------------------------|
B-----------------------------------------------------------------------|
G-----------------------------------------------------------------------|
D---------------------------------------5--5-5--5-5--5-8----------------|
A---0-0-13-0-0-13-0-13--0-0-13-0-0-13-0-5--5-5--5-5--5-8--3-1-0-1-0-1-3-|
D---0-0-13-0-0-13-0-13--0-0-13-0-0-13-0-5--5-5--5-5--5-8--3-1-0-1-0-1-3-|


Repeat Verse

Repeat Prechorus

Repeat Chorus x2 (on 2nd time, finish with an extra -3-1-0-1-0-1-3- on the low D and A strings


Interlude:
E-----------------------------------------------------------------------|
B----(harm)-------------------------------------------------------------|
G------3~--7-7-7-7-7-7-7-7-7-7-7-7/13-13-13-13-13-13-13-13-13-13-13-13--|
D----------x-x-x-x-x-x-x-x-x-x-x-x--x--x--x--x--x--x--x--x--x--x--x--x--|
A-0~-------5-5-5-5-5-5-5-5-5-5-5-5/11-11-11-11-11-11-11-11-11-11-11-11--|
D-0~--------------------------------------------------------------------|


Solo w/ wah:
E-----------------------------------------------------10-----------10--------|
B---13^---13^~~~~---10h13p10-----------------------10----10-13-10------------|
G----------------------------12^-----12-----12^------------------13---13-12^-|
D----------------------------------------------------------------------------|
A----------------------------------------------------------------------------|
D----------------------------------------------------------------------------|

E------------------------------------------------------------------------------------|
B------------------10------10-----10---------(T)-------------------------------------|
G---12p10--10-12^-----12^-----12^----12^\----10^-------10----------------------------|
D--------12-----------------------------------------12----12~~~~--------10--10-12^---|
A--------------------------------------------------------------------/12--12---------|
D------------------------------------------------------------------------------------|

E-------------------15^--13~~~~--10-------10~~----------10-----------------------13--13-----|
B-----------------------------------13------------13^------13-10----13------13-15--15---15^-|
G--------------------------------------10------------------------12^----/14-----------------|
D---12p10-12~~~~\---------------------------------------------------------------------------|
A-------------------------------------------------------------------------------------------|
D-------------------------------------------------------------------------------------------|

Play this during the end of the solo with another guitar:
E-------------------------------------------------------|
B-------------------------------------------------------|
G-------------------------------------------------------|
D---7--7-7-7-7-7-7-7--7--10-10-10-10-10-10-10-10-10-10--|
A---5--5-5-5-5-5-5-5--5---8--8--8--8--8--8--8--8--8--8--|
D---5--5-5-5-5-5-5-5--5---8--8--8--8--8--8--8--8--8--8--|


Repeat chorus x2

Outro:                 take this x2
  __________________________|__________________________
 |    Part 1 x3:                    Part 2:           |
E---------------------------|---------------------------|
B---------------------------|---------------------------|
G---------------------------|---------------------------|
D---------------------------|---------------------------|
A---------------------------|---------------------------|
D---0--0-0-0--0--0--13--13--|--0-0-0--0--0--0--15--13---|
PM  .  . . .  .  .  *   *     . . .  .  .  .   *    *

Then take part and repeat it 3x and finish with this:
E-------------------|
B-------------------|
G-------------------|
D-------------------|
A-------------------|
D---0--0-0-0--0--0--|
PM  .  . . .  .  .

3.CHANGES

Intro(x2; on second time, guitar 2 enters):
   Guitar 1:
E |--------------------|----------------------|---------------|---------------|
B |--------------------|----------------------|---------------|---------------|
G |--------------------|----------------------|---------------|---------------|
D |--------------------|----------------------|---------------|---------------|
A |--------------------|----------------------|---------------|---------------|
D |0-10-12-0-10-12-0-10|-12-0-10-12-0-10-12-8~|-0-8-0-8-10-0-7|8-0-5-7-0-3-5-5|

E |--------------------|----------------------|------------------|--------------|
B |--------------------|----------------------|------------------|--------------|
G |--------------------|----------------------|------------------|--------------|
D |--------------------|----------------------|------------------|--------------|
A |--------------------|----------------------|----------------7~|---5-7-0-3-5-5|
D |0-10-12-0-10-12-0-10|-12-0-10-12-0-10-12-10|-8-0-8-0-8-10-0-7~|-0-5-7-0-3-5-5|

   Intro:
   Guitar 2:
E |---------------|-----------------|----------------|----------------|
B |---------------|-----------------|----------------|----------------|
G |7-7-7-7-7-7-7-7|7-7-7-7-7-7-7-10~|1010101010101010|9-9-9-9-9-9-9-9-|
D |x-x-x-x-x-x-x-x|x-x-x-x-x-x-x-x--|x-x-x-x-x-x-x-x-|x-x-x-x-x-x-x-x-|
A |5-5-5-5-5-5-5-5|5-5-5-5-5-5-5-8~-|8-8-8-8-8-8-8-8-|7-7-7-7-7-7-7-7-|
D |---------------|-----------------|----------------|----------------|

E |---------------|---------------|---------------|---------------|
B |---------------|---------------|---------------|---------------|
G |7-7-7-7-7-7-7-7|5-5-5-5-5-5-5-5|3-3-3-3-3-3-3-5|5-5-5-5-5-5-5-7|
D |x-x-x-x-x-x-x-x|x-x-x-x-x-x-x-x|x-x-x-x-x-x-x-x|x-x-x-x-x-x-x-x|
A |5-5-5-5-5-5-5-5|5-5-5-5-5-5-5-3|1-1-1-1-1-1-1-3|3-3-3-3-3-3-3-5|
D |---------------|---------------|---------------|---------------|

   Post-Intro:
   Guitar 1:
E |---------------|------------------|------------------|--------------------|
B |---------------|------------------|------------------|--------------------|
G |---------------|------------------|------------------|-----------8-8-8-8-8|
D |---------------|------------------|------------------|-----------7-7-7-7-7|
A |0~~~~~~~~~~~~~~|(0)~~~~~~~~~~~~~~~|(0)~~~~~~~~~~~~~~~|(0)~~~~~~~~6-6-6-6-6|
D |0~~~~~~~~~~~~~~|(0)~~~~~~~~~~~~~~~|(0)~~~~~~~~~~~~~~~|(0)~~~~~~~~---------|
   Guitar 2(Clean/Acoustic):
E |---------------|------------------|------------------|--------------------|
B |---------------|------------------|------------------|--------------------|
G |---------------|------------------|------------------|--------------------|
D |-----0-----0---|--0--------0------|----0-------0-----|----------0---------|
A |----0-0---0----|0---0----3---3----|--0---0---3-------|------0-------------|
D |--0-----6----0-|-------6----------|0-------6------0~~|--------------------|
   Guitar 2:(Distorted):
E |---------------|------------------|------------------|--------------------|
B |---------------|------------------|------------------|--------------------|
G |7~~~~~~~~~~~~~~|~~~~~~~~~~~~~~~~~~|~~~~~~~~~~~~~~~~~~|--------------------|
D |x--------------|------------------|------------------|--------------------|
A |5~~~~~~~~~~~~~~|~~~~~~~~~~~~~~~~~~|~~~~~~~~~~~~~~~~~~|--------------------|
D |---------------|------------------|------------------|--------------------|

Verse 1:
   Guitar 1:
E |--------------|--------------|---------------|------------|--------------|
B |--------------|--------------|---------------|------------|--------------|
G |--------------|--------------|---------------|------------|--------------|
D |--------------|--------------|---------------|------------|--------------|
A |---6-----6----|---6-----3-6-5|----6-----6----|-6-----1----|---6-----6----|
D |0--6h0-0-6h0-0|-0-6h0-0-3-6-5|0-0-6h0-0-6h0-0|-6h0-0-1--00|0--6h0-0-6h0-0|
PM *      *     *  *     *       * *     *     *      *    ** *      *     *

E |--------------|--------------|---------------|---------------|
B |--------------|--------------|---------------|---------------|
G |--------------|----------8-8\|---------------|---------------|
D |--------------|----------7-7\|---------------|---------------|
A |----6-----6---|---6------6-6\|---6-----6-----|----6-----3-6-5|
D |0--6h0-0-6h0-0|-0-6h0-0------|0--6h0-0-6h0-0-|0-0-6h0-0-3-6-5|
PM  *      *    *  *     *       *      *     *  * *     *

E |---------------|-------------|----------------|--------------|
B |---------------|-------------|----------------|--------------|
G |---------------|-------------|----------------|--------------|
D |---------------|-------------|----------------|--------------|
A |----6-----6----|---6-----1---|---6------------|---6---------8|
D |0-0-6h0-0-6h0-0|-0-6h0-0-1-00|0--6h0-0-6h0-0--|-0-6h0-0-0-0-8|
PM * *     *     *  *     *   ** *      *     *    *     * * *

E |-------------|------------------|
B |-------------|------------------|
G |----------10~|~10101010---------|
D |----------10~|~10101010-10-10-10|
A |--8-8-8-8--8~|~-8-8-8-8-10-10-10|
D |--8-8-8-8----|----------10-10-10|

Chorus(guitar 2 comes in 2nd time):
   Guitar 1:
E |--------------------|----------------------|---------------|---------------|
B |--------------------|----------------------|---------------|---------------|
G |--------------------|----------------------|---------------|---------------|
D |--------------------|----------------------|---------------|---------------|
A |--------------------|----------------------|---------------|---------------|
D |0-10-12-0-10-12-0-10|-12-0-10-12-0-10-12-8~|-0-8-0-8-10-0-7|8-0-5-7-0-3-5-5|

   Guitar 1:
E |--------------------|----------------------|------------|
B |--------------------|----------------------|------------|
G |--------------------|----------------------|------------|
D |--------------------|----------------------|------------|
A |--------------------|----------------------|-8~~~~~~~~~7|
D |0-10-12-0-10-12-0-10|-12-0-10-12-0-10-12-10|-8~~~~~~~~~7|
   Guitar 2:
E |---------------|----------------|-------|
B |---------------|----------------|-------|
G |7-7-7-7-7-7-7-7|7-7-7-7-7-7-7-7-|10~~~~9|
D |x-x-x-x-x-x-x-x|x-x-x-x-x-x-x-x-|x-----x|
A |5-5-5-5-5-5-5-5|5-5-5-5-5-5-5-5-|8~~~~~7|
D |---------------|----------------|-------|

   Guitar 1:
E |-----------|--------------|--------------|--------------|------TACET-|
B |-----------|--------------|--------------|--------------|------TACET-|
G |-----------|--------------|----------7-7\|--------------|------TACET-|
D |-----------|--------------|----------7-7\|--------------|------TACET-|
A |------0-3-3|---6-----6----|---6------6-6\|---6-----6----|---6--TACET-|
D |~~~~~~0-3-3|0--6h0-0-6h0-0|-0-6h0-0------|0--6h0-0-6h0-0|-0-6--TACET-|
PM             *      *     *  *     *       *      *     *  *

Verse 2:

   Guitar 1:
E |--------------|--------------|---------------|------------|--------------|
B |--------------|--------------|---------------|------------|--------------|
G |--------------|--------------|---------------|------------|--------------|
D |--------------|--------------|---------------|------------|--------------|
A |---6-----6----|---6-----3-6-5|----6-----6----|-6-----1----|---6-----6----|
D |0--6h0-0-6h0-0|-0-6h0-0-3-6-5|0-0-6h0-0-6h0-0|-6h0-0-1--00|0--6h0-0-6h0-0|
PM *      *     *  *     *       * *     *     *      *    ** *      *     *


E |--------------|---------------|--------------|------------------|
B |--------------|---------------|--------------|------------------|
G |--------------|---------------|----------10~|~10101010----------|
D |--------------|---------------|----------10~|~10101010--10-10-10|
A |---6-----6----|---6---------8-|--8-8-8-8--8~|~-8-8-8-8--10-10-10|
D |0--6h0-0-6h0-0|-0-6h0-0-0-0-8-|--8-8-8-8----|-----------10-10-10|
PM *      *     *  *     * * *

E |--------------|--------------|---------------|------------|--------------|
B |--------------|--------------|---------------|------------|--------------|
G |--------------|--------------|---------------|------------|--------------|
D |--------------|--------------|---------------|------------|--------------|
A |---6-----6----|---6-----3-6-5|----6-----6----|-6-----1----|---6-----6----|
D |0--6h0-0-6h0-0|-0-6h0-0-3-6-5|0-0-6h0-0-6h0-0|-6h0-0-1--00|0--6h0-0-6h0-0|
PM *      *     *  *     *       * *     *     *      *    ** *      *     *


E |--------------|---------------|-------------|-------------------|
B |--------------|---------------|-------------|-------------------|
G |--------------|---------------|----------10~|~10101010----------|
D |--------------|---------------|----------10~|~10101010--10-10-10|
A |---6-----6----|---6---------8-|--8-8-8-8--8~|~-8-8-8-8--10-10-10|
D |0--6h0-0-6h0-0|-0-6h0-0-0-0-8-|--8-8-8-8----|-----------10-10-10|
PM *      *     *  *     * * *

Chorus 2:
   Guitar 1(x2):
E |--------------------|----------------------|---------------|---------------|
B |--------------------|----------------------|---------------|---------------|
G |--------------------|----------------------|---------------|---------------|
D |--------------------|----------------------|---------------|---------------|
A |--------------------|----------------------|---------------|---------------|
D |0-10-12-0-10-12-0-10|-12-0-10-12-0-10-12-8~|-0-8-0-8-10-0-7|8-0-5-7-0-3-5-5|

   Guitar 2(x4):
E |---------------|-----------------|----------------|----------------|
B |---------------|-----------------|----------------|----------------|
G |7-7-7-7-7-7-7-7|7-7-7-7-7-7-7-10~|1010101010101010|9-9-9-9-9-9-9-9-|
D |x-x-x-x-x-x-x-x|x-x-x-x-x-x-x-x--|x-x-x-x-x-x-x-x-|x-x-x-x-x-x-x-x-|
A |5-5-5-5-5-5-5-5|5-5-5-5-5-5-5-8~-|8-8-8-8-8-8-8-8-|7-7-7-7-7-7-7-7-|
D |---------------|-----------------|----------------|----------------|

Interlude:
   Guitar 1(x7; hit note once):
E |---------------|
B |---------------|
G |---------------|
D |---------------|
A |0~~~~~~~~~~~~~~|
D |0~~~~~~~~~~~~~~|
   Guitar 2(Clean/Acoustic) x3:
E |---------------|------------------|------------------|--------------------|
B |---------------|------------------|------------------|--------------------|
G |---------------|------------------|------------------|--------------------|
D |-----0-----0---|--0--------0------|----0-------0-----|----0-----------0---|
A |----0-0---0----|0---0----3---3----|--0---0---3-------|-0-----0-----3------|
D |--0-----6----0-|-------6----------|0-------6------0~~|----------6--------3|

   Guitar 2:
E |---------------|------------------|------------------|--------------------|
B |---------------|------------------|------------------|--------------------|
G |7~~~~~~~~~~~~~~|~~~~~~~~~~~~~~~~~~|~~~~~~~~~~~~~~~~~~|--------------------|
D |x--------------|------------------|------------------|--------------------|
A |5~~~~~~~~~~~~~~|~~~~~~~~~~~~~~~~~~|~~~~~~~~~~~~~~~~~~|--------------------|
D |---------------|------------------|------------------|--------------------|

   Post-Interlude:
   Guitar 1(w/wah):
E |------------|----------|--------------------|------------------|
B |------------|----------|5-------5-------5---|--5-----5------5--|
G |--5/7~~~~~~~|--7\5~~~~7|--7-------7--------7|-----7----7------7|
D |------------|----------|--------------------|------------------|
A |------------|----------|--------------------|------------------|
D |------------|----------|--------------------|------------------|
HOLD                       ****************************************

Guitar Solo:

   Guitar 1:
E |----------------------|------------------|-------------|------------------|
B |-12^1===(12)=(12)=(12)|14-14-12h10-12-12v|---12^1r-----|---12^1---12h10---|
G |----------------------|------------------|-------------|----------------12|
D |----------------------|------------------|-------------|------------------|
A |----------------------|------------------|-------------|------------------|
D |----------------------|------------------|-------------|------------------|

E |--------1010---------------|--------10-----------------------------|
B |-13^1r~~----13h10-13-----13|10-13^1----13h10---10--10--------------|
G |----------------------13---|-----------------13--13--12h10--10-12^1|
D |---------------------------|------------------------------12-------|
A |---------------------------|---------------------------------------|
D |---------------------------|---------------------------------------|

E |----------------------10----------------|---------------------------|
B |10-13-10--10-13h10--13--10----------10--|---------------------------|
G |--------13--------12-----12-10-12-13--13|12-13-12h10--10h12^1--10v~~|
D |----------------------------------------|-----------12--------------|
A |----------------------------------------|---------------------------|
D |----------------------------------------|---------------------------|

E |-15^r==(15)=(15)=(15)|(15)=15=15h13-15v---12-13|-12-15-12-12-13-12-13|
B |---------------------|-------------------------|---------------------|
G |---------------------|-------------------------|---------------------|
D |---------------------|-------------------------|---------------------|
A |---------------------|-------------------------|---------------------|
D |---------------------|-------------------------|---------------------|

E |---------13------13----13|------------------------|---0-0---20^1---------------|
B |--15^1-----15^1----15^1--|15^1.5r-----13h15vv-----|---0-0--------20^0.5r-18--18|
G |-------------------------|---------14-------------|------------------------19--|
D |-------------------------|------------------------|----------------------------|
A |-------------------------|------------------------|----------------------------|
D |-------------------------|------------------------|----------------------------|

E |----------------------------------------|---------------------|
B |20^1--10--10----------------------------|---------------------|
G |--------13--13-12-13-12h10--10-12^1-10vv|~~-----------10\~~---|
D |--------------------------12------------|-----12h10---10\~~---|
A |----------------------------------------|----------12---------|
D |----------------------------------------|---------------------|
Delay                                                    ********

Interlude:

    Guitar 1.
E |--------------------|---------------------|--------------|---------------|
B |--------------------|---------------------|--------------|---------------|
G |--------------------|---------------------|--------------|---------------|
D |--------------------|---------------------|--------------|---------------|
A |--------------------|---------------------|--------------|---------------|
D |0-10-12-0-10-12-0-10|12-0-10-12-0-10-12-8~|0-8-0-8-10-0-7|8-0-5-7-0-3-5-5|

   Guitar 1:
E |--------------------|---------------------|---------------|---------------|
B |--------------------|---------------------|---------------|---------------|
G |--------------------|---------------------|---------------|---------------|
D |--------------------|---------------------|---------------|---------------|
A |--------------------|---------------------|8~~~~~~~~~~~7~~|~~~~~~~~~~~~~~~|
D |0-10-12-0-10-12-0-10|12-0-10-12-0-10-12-10|8~~~~~~~~~~~7~~|~~~~~~~~~~~~~~~|
   Guitar2:
E |--------------------|---------------------|---------------|---------------|
B |--------------------|---------------------|---------------|---------------|
G |--------------------|---------------------|10\-10\-10\-10\|10\-10\-10\-10\|
D |--------------------|---------------------|10\-10\-10\-10\|10\-10\-10\-10\|
A |--------------------|---------------------|---------------|---------------|
D |--------------------|---------------------|---------------|---------------|
Panning                                       *******************************

Chorus:
   Guitar 1(x2):
E |--------------------|----------------------|---------------|---------------|
B |--------------------|----------------------|---------------|---------------|
G |--------------------|----------------------|---------------|---------------|
D |--------------------|----------------------|---------------|---------------|
A |--------------------|----------------------|---------------|---------------|
D |0-10-12-0-10-12-0-10|-12-0-10-12-0-10-12-8~|-0-8-0-8-10-0-7|8-0-5-7-0-3-5-5|

   Guitar 2(x4):
E |---------------|-----------------|----------------|----------------|
B |---------------|-----------------|----------------|----------------|
G |7-7-7-7-7-7-7-7|7-7-7-7-7-7-7-10~|1010101010101010|9-9-9-9-9-9-9-9-|
D |x-x-x-x-x-x-x-x|x-x-x-x-x-x-x-x--|x-x-x-x-x-x-x-x-|x-x-x-x-x-x-x-x-|
A |5-5-5-5-5-5-5-5|5-5-5-5-5-5-5-8~-|8-8-8-8-8-8-8-8-|7-7-7-7-7-7-7-7-|
D |---------------|-----------------|----------------|----------------|

Post-Chorus:
 Guitar 1:
E |-------10-----10----|--10-10---10---10-13^1|~~~~~~13vv|--13-15^1~~15^1|
B |--13^1---13^1---13^1|~----13^1-13^1--------|----------|/15------------|
G |--------------------|----------------------|----------|---------------|
D |--------------------|----------------------|----------|---------------|
A |--------------------|----------------------|----------|---------------|
D |--------------------|----------------------|----------|---------------|

E |15^1r~13---------------|----------------------------|
B |--------15v~\13-10-----|----------------------------|
G |------------------13-10|12-10vv~~12h10--------------|
D |-----------------------|--------------12-10---------|
A |-----------------------|-------------------12-11-10\|
D |-----------------------|----------------------------|

   Guitar 2:
E |--------------------|---------------------|--------------|---------------|
B |--------------------|---------------------|--------------|---------------|
G |--------------------|---------------------|--------------|---------------|
D |--------------------|---------------------|--------------|---------------|
A |--------------------|---------------------|--------------|---------------|
D |0-10-12-0-10-12-0-10|12-0-10-12-0-10-12-8~|0-8-0-8-10-0-7|8-0-5-7-0-3-5-5|

E |--------------------|---------------------|---------------|---------------|
B |--------------------|---------------------|---------------|---------------|
G |--------------------|---------------------|---------------|---------------|
D |--------------------|---------------------|---------------|---------------|
A |--------------------|---------------------|8~~~~~~~~~~~7~~|~~~~~~~~~~~~~~~|
D |0-10-12-0-10-12-0-10|12-0-10-12-0-10-12-10|8~~~~~~~~~~~7~~|~~~~~~~~~~~~~~~|

Outro:

   Guitar 1(x7; hit note once):
E |-----|
B |-----|
G |-----|
D |-----|
A |0~~~~|
D |0~~~~|

   Guitar 2(Clean/Acoustic) x2:
E |---------------|------------------|------------------|--------------------|
B |---------------|------------------|------------------|--------------------|
G |---------------|------------------|------------------|--------------------|
D |-----0-----0---|--0--------0------|----0-------0-----|----0-----------0---|
A |----0-0---0----|0---0----3---3----|--0---0---3-------|-0-----0-----3------|
D |--0-----6----0-|-------6----------|0-------6------0~~|----------6--------3|

4.MAKE ME BELIEVE

Intro (Chorus) x2:
            x3                       then:
D--------------------------------|--------------------------|
A--------------------------------|--------------------------|
F--------------------------------|--------------------------|
C---------101010---8-8-8---7-7-7-|--------------------------|
G---0-000--8-8-8---6-6-6---5-5-5-|-55-55-55------3-----1----|
C---0-000--------0-------0-------|-55-55-55--0-0-3-0-0-1----|
PM                                           . .   . .

Verse x2:
D--------------------------------------------------------------------|
A--------------------------------------------------------------------|
F--------------------------------------------------------------------|
C--------------------------------------------------------------------|
G--------------------------------------------------------------------|
C---0--0-0-0--0-0-0-8-8-8-8-7-7-7----0--0-0-0-8-8-8-8-7-7-7-7-5-5-5--|
PM  .  . . .  . . . . . . . . . .    .  . . . . . . . . . . . . . .

Prechorus:
D---------------------------   -------------------------------|
A---7-7-7-------------------   -7-7-7-------------------------|
F---7-7-7-------------------   -7-7-7-------------------------|
C---7-7-7-------------------   -7-7-7-------------------------|
G---5-5-5-------------------   -5-5-5--8-8-8-8\7-7-7-7\5-5-5--|
C------------8-8-8-8-7-7-7--   --------8-8-8-8\7-7-7-7\5-5-5--|
PM           . . . . . . .


Repeat Chorus

After Chorus x2:
D-------------------------------------------------------------------|
A-------------------------------------------------------------------|
F-------------------------------------------------------------------|
C-------------------------------------------------------------------|
G-------------------------------------------------------------------|
C--0--0-0-0--0-0-0-8-8-8-8-7-7-7-----0--0-0-0-8-8-8-8\7-7-7-7\5-5-5-|
PM .  . . .  . . . . . . . . . .     .  . . .


Play Verse
Play Prechorus
Play Chorus x2

Bridge:
D----------------------------------------|
A----------------------------------------|
F------------------------------10--------|
C---------------10~-----10-------10------|
G---0~---/12~\---8~--------8-------8-----|
C---0~---/12~\---8~---8------8-----------|

Solo w/wah:
D---------------------------------------------|
A---13---13---13--13---13--13----13--13--13---|
F---12^--12^--12^-12^--12^-12^---12^-12^-12^--|
C---------------------------------------------|
G---------------------------------------------|
C---------------------------------------------|

D----------------------------------------------|
A----------------------------------------------|
F--12^--12^-12^-12^-12^-12-12-12----10-12~~~~~-|
C----------------------------------------------|
G----------------------------------------------|
C----------------------------------------------|

D----------10-------------------|
A--------12---12p10----10-13^---|
F----12^------------13----------|
C-------------------------------|
G-------------------------------|
C-------------------------------|

Play chorus until end

5.I STAND ALONE

Intro/Chorus
|----------------------------------|
|----------------------------------|
|----------------------------------|
|----------------------------------|
|-------12-12------13-13-----13-13-|
|-0-0-0-------0--0-------0-0-------|x7

Fill
|----------------------------|
|----------------------------|
|----------------------------|
|------------------------11\-|
|-------12-12------13-13-11\-|
|-0-0-0-------0--0-------11\-|

Verse
|-------------------------------------------|
|-------------------------------------------|
|-------------------------------------------|
|-0--x-x-0--x-x-6--6-6--0--x-x-0--x-x-5p3-0-|
|-0--x-x-0--x-x-6--6-6--0--x-x-0--x-x-5p3-0-|
|-0--x-x-0--x-x-6--6-6--0--x-x-0--x-x-5p3-0-|

|-------------------------------------------|
|-------------------------------------------|
|-------------------------------------------|
|-0--x-x-0--x-x-6--6-6--0--x-x-0--x-x--x--x-|
|-0--x-x-0--x-x-6--6-6--0--x-x-0--x-x--x--x-|
|-0--x-x-0--x-x-6--6-6--0--x-x-0--x-x--x--x-|

|--------------------------------------------------------------------|
|--------------------------------------------------------------------|
|--------------------------------------------------------------------|
|-0--x-x-0--x-x-6--6-6--0--x-x-0--x-x-5p3-0--0--x-x-0--x-x-6--6-6-6~-|
|-0--x-x-0--x-x-6--6-6--0--x-x-0--x-x-5p3-0--0--x-x-0--x-x-6--6-6-6~-|
|-0--x-x-0--x-x-6--6-6--0--x-x-0--x-x-5p3-0--0--x-x-0--x-x-6--6-6-6~-|

Chorus is the Intro played 3 times and play the fill at the end.
Play the 2nd Verse with the first 2 riffs the first time then play
the first riff 2 times then play this then play this:
|----------------------------------------------------|
|----------------------------------------------------|
|-7--7-7-7-7--7-7--7-7-10--10-10-10-10--10-10--10-10-|
|-5--5-5-5-5--5-5--5-5-8---8--8--8--8---8--8---8--8--|
|-5--5-5-5-5--5-5--5-5-8---8--8--8--8---8--8---8--8--|
|-5--5-5-5-5--5-5--5-5-8---8--8--8--8---8--8---8--8--|

2nd Chorus
|----------------------------------|
|----------------------------------|
|----------------------------------|
|----------------------------------|
|-------12-12------13-13-----13-13-|
|-0-0-0-------0--0-------0-0-------|x2

|----------------------------------------------------|
|----------------------------------------------------|
|-7--7-7-7-7--7-7--7-7-10--10-10-10-10--10-10--10-10-|
|-5--5-5-5-5--5-5--5-5-8---8--8--8--8---8--8---8--8--|
|-5--5-5-5-5--5-5--5-5-8---8--8--8--8---8--8---8--8--|
|-5--5-5-5-5--5-5--5-5-8---8--8--8--8---8--8---8--8--|
Repeat both these riffs twice.

|----------------------------------|
|----------------------------------|
|----------------------------------|
|----------------------------------|
|-------12-12------13-13-----13-13-|
|-0-0-0-------0--0-------0-0-------|x4

Bridge
|------|
|------|
|------|
|-0~~~-|
|-0~~~-|
|-0~~~-|

|-------------------------|
|-------------------------|
|-------------------------|
|-----5-----5-----0-----0-|
|---3-----3-----0-----0---|
|-3-----3-----0-----0-----|x3 1/2
In the background another guitar has a funny effect on and is doing
pick scrapes and repeats these notes sometimes and other stuff.

|--------------------------------------------------------------------|
|--------------------------------------------------------------------|
|--------------------------------------------------------------------|
|-0--x-x-0--x-x-6--6-6--0--x-x-0--x-x-5p3-0--0--x-x-0--x-x-6--6-6-6~-|
|-0--x-x-0--x-x-6--6-6--0--x-x-0--x-x-5p3-0--0--x-x-0--x-x-6--6-6-6~-|
|-0--x-x-0--x-x-6--6-6--0--x-x-0--x-x-5p3-0--0--x-x-0--x-x-6--6-6-6~-|
There's something funny going on in the background with that weird
effect but I don't know it.

Chorus
|----------------------------------|
|----------------------------------|
|----------------------------------|
|----------------------------------|
|-------12-12------13-13-----13-13-|
|-0-0-0-------0--0-------0-0-------|x4

|----------------------------------------------------|
|----------------------------------------------------|
|-7--7-7-7-7--7-7--7-7-10--10-10-10-10--10-10--10-10-|
|-5--5-5-5-5--5-5--5-5-8---8--8--8--8---8--8---8--8--|
|-5--5-5-5-5--5-5--5-5-8---8--8--8--8---8--8---8--8--|
|-5--5-5-5-5--5-5--5-5-8---8--8--8--8---8--8---8--8--|

|----------------------------------|
|----------------------------------|
|----------------------------------|
|----------------------------------|
|-------12-12------13-13-----13-13-|
|-0-0-0-------0--0-------0-0-------|x2

|----------------------------------------------------|
|----------------------------------------------------|
|-7--7-7-7-7--7-7--7-7-10--10-10-10-10--10-10--10-10-|
|-5--5-5-5-5--5-5--5-5-8---8--8--8--8---8--8---8--8--|
|-5--5-5-5-5--5-5--5-5-8---8--8--8--8---8--8---8--8--|
|-5--5-5-5-5--5-5--5-5-8---8--8--8--8---8--8---8--8--|

|----------------------------------|
|----------------------------------|
|----------------------------------|
|----------------------------------|
|-------12-12------13-13-----13-13-|
|-0-0-0-------0--0-------0-0-------|x4

|----------------------------|
|----------------------------|
|----------------------------|
|-0-0-0-7-7-0--0-8-8-0-0-8-8-|
|-0-0-0-7-7-0--0-8-8-0-0-8-8-|
|-0-0-0-7-7-0--0-8-8-0-0-8-8-|x4

6.RE-ALIGN

Intro Play x2 (with distortion)
E--------------------------------------------------|
B--------------------------------------------------|
G--------------------------------------------------|
C-0-0-0-0--3-3-3-8-8-8--0-0-0-0--8--3-1-0----------|
G-0-0-0-0--3-3-3-8-8-8--0-0-0-0--8--3-1-0----------|
C-0-0-0-0--3-3-3-8-8-8--0-0-0-0--8--3-1-0----------|

Intro(continued)
E-------------------------------------|
B-------------------------------------|
G-------------------------------------|
C-0-0-0-0--3-3-3-8-8-8--0-0-0-0--8--1-|
G-0-0-0-0--3-3-3-8-8-8--0-0-0-0--8--1-|
C-0-0-0-0--3-3-3-8-8-8--0-0-0-0--8--1-|
                                    ^Let ring

Verse (Distortion)
E----------------------------------------------------|
G----------------------------------------------------|
B----------------------------------------------------|
C-0-0h3--3-8-0-0h3--3-8-0--0h3-8--0-0h3--------------|
G-0-0h3--3-8-0-0h3--3-8-0--0h3-8--0-0h3--------------|
C-0-0h3--3-8-0-0h3--3-8-0--0h3-8--0-0h3--------------|

Chorus(Distortion)
E-----------------------------------------------------------|
B-----------------------------------------------------------|
G-----------------------------------------------------------|
C-0-10--8-10--0--10--8--10--0-------------------------------|
G-0-10--8-10--0--10--8--10--0-------------------------------|
C-0-10--8-10--0--10--8--10--0-------------------------------|

For the second chorus, play the above two times

Bridge
E-----------------------------------------------------------------|
B-----------------------------------------------------------------|
G-----------------------------------------------------------------|
C-33333-2-2-0-0-0---3-3-2-2-0-0-0--3-3-2-2-0000-0-0---------------|
G-33333-2-2-0-0-0---3-3-2-2-0-0-0--3-3-2-2-0000-0-0---------------|
C-33333-2-2-0-0-0---3-3-2-2-0-0-0--3-3-2-2-0000-0-0---------------|
                                           ****

Pre-Solo(with effect)
E-----------------------------------------------------------------|
B-----------------------------------------------------------------|
G----10-12-10------8-10-8------10-12-10------8-10-8---------------|
C-----------------------------------------------------------------|
G-----------------------------------------------------------------|
C-----------------------------------------------------------------|

7.I F****** HATE YOU

Intro:
-------------------------------------------------------------------|
-------------------------------------------------------------------|
-------------------------------------------------------------------|
--0-0------------------------------------0-0---3---5--6--5---3-----|
--0-0------------------------------------0-0---3---5--6--5---3-----|
--0-0--0-18-18--0-18-18--0-18-18---------0-0---3---5--6--5---3-----|


Verse:
------------------------------------------------------------------------------|
------------------------------------------------------------------------------|
------------------------------------------------------------------------------|
--0-0-------------------------------------------------------------------------|
--0-0-------------------------------------------------------------------------|
--0-0---0-18-18--0-18-18--0-18-18-18--0-18-18---------------------------------|


Pre-Chorus:
------------------------------------------------------------------------------|
--3--------------3------------------------------------------------------------|
--2--------------2------------------------------------------------------------|
--0------6-------0----5-6-5-6-5-6-5-6-----------------------------------------|
--0------6-------0----5-6-5-6-5-6-5-6-----------------------------------------|
--0------6-------0----5-6-5-6-5-6-5-6-----------------------------------------|


Chorus:
------------------------------------------------------------------------------|
------------------------------------------------------------------------------|
------------------------------------------------------------------------------|
--0-0----3---5--6---5---------0-0----3---5--6---5-----------------------------|
--0-0----3---5--6---5---------0-0----3---5--6---5-----------------------------|
--0-0----3---5--6---5---------0-0----3---5--6---5-----------------------------|


Bridge:
-------------------------------------------------------------------------------|
--3----------------------------------------------------------------------------|
--2----------------------------------------------------------------------------|
--0---------------2/////////////////-------------------------------------------|
--0---------------2/////////////////-------------------------------------------|
--0----------------------------------------------------------------------------|
  Let Ring        ---Pick Scrape-----------------------------------------------|

8.RELEASING THE DEMONS

INTRO:
------------------------------------------------------------------------------|
------------------------------------------------------------------------------|
------------------------------------------------------------------------------|
--0-x-x---10/12-12-12---13-13-13-13--------3-3-3-3----6----6------------------|
--0-x-x---10/12-12-12---13-13-13-13--x3----3-3-3-3----6----6------------------|
--0-x-x---10/12-12-12---13-13-13-13--------3-3-3-3----6----6------------------|

VERSE:	                                   FILL 1:
---------------------------------------------|--------------------------------|
---------------------------------------------|--------------------------------|
------7--------------------------------------|--------------------------------|
----6----------------5-/-6-------------------|-13-13-13-13-13--12-10----------|
--5----------------6-------------------------|-13-13-13-13-13--12-10----------|
-----------------7---------------------------|-13-13-13-13-13--12-10----------|
      ^LET RING          ^DO NOT PICK

CHORUS:
------------------------------------------------------------------------------|
------------------------------------------------------------------------------|
-------8-8-8-8----7-7-7-7-----------------------------------------------------|
--0----8-8-8-8----7-7-7-7------3-3-3-3-----6-----6----------------------------|
--0----6-6-6-6----5-5-5-5------3-3-3-3-----6-----6----------------------------|
--0----------------------------3-3-3-3-----6-----6----------------------------|
 P.M

BRIDGE:
-------------------------------------------------------------------------------|
-------------------------------------------------------------------------------|
-------------------------------------------------------------------------------|
-------------------------------------------------------------------------------|
--0-0-0-0-----0-0-0-0-----0-0-0-0-0-0-0-0--------------------------------------|
--0-0-0-0-----0-0-0-0-----0-0-0-0-0-0-0-0--------------------------------------|
  --P.M--     --P.M--     ------P.M--------------------------------------------|

9.DEAD AND BROKEN

INTRO: P.1
-----------------------------------------------------------------------------|
-----------------------------------------------------------------------------|
-----------------------------------------------------------------------------|
-----------------------------------------------------------------------------|
-----------------------------------------------------------------------------|
-3/12-000-13-00-15-0-13-00-12-0-10---12-000-13-00-15-0-13-00-12-0-10---------|
                                                                  ^ LET RING


 INTRO; P.2
-----------------------------------------------------------------------------|
-----------------------------------------------------------------------------|
-----------------------------------------------------------------------------|
-----------------------------------------------------------------------------|
-----------------------------------------------------------------------------|
-12-000-13-00-15-0-13-00-12-0-10---12-000-13-00-15-0-12\10-------------------|
                                                        ^ LET RING


         FILL 1              VERSE: P.1                          FILL 2
-|----------------------|-----------------------------------|---------------|
-|----------------------|-----------------------------------|---------------|
-|-7-7-7-7-7-7---5--5-5-|--------------------------------7--|---------------|
-|-5-5-5-5-5-5---3--3-3-|-----------------------------6--6--|-6-6-6-6-6-6-6-|
-|-5-5-5-5-5-5---3--3-3-|----0-0---0-0---0-0---0-0--5----5--|-6-6-6-6-6-6-6-|
-|-5-5-5-5-5-5---3--3-3-|----0-0---0-0---0-0---0-0----------|-6-6-6-6-6-6-6-|

    VERSE: P.2                            FILL 2
-------------------------------------|---------------|
-------------------------------------|---------------|
------------------------------7------|---------------|
---------------------------6--6------|-6-6-6-6-6-6-6-|
----0-0-0---0-0---0-0-0--5----5------|-6-6-6-6-6-6-6-|
----0-0-0---0-0---0-0-0--------------|-6-6-6-6-6-6-6-|

CHORUS: P.1
----------------------------------------------------------------------------------|
--2-------2-----------------------------------------------------------------------|
--3---8---3---5-------------------------------------------------------------------|
--0---6---0---3-------------------------------------------------------------------|
--0---6---0---3-------------------------------------------------------------------|
--0---6---0---3/-12-000-13-00-15-0-13-00-12-0-10--12-000-13-00-15-0-13-00-12-0-10-|


CHORUS: P.2
----------------------------------------------------------------------------------|
--2-------2-----------------------------------------------------------------------|
--3---8---3---5-------------------------------------------------------------------|
--0---6---0---3-------------------------------------------------------------------|
--0---6---0---3-------------------------------------------------------------------|
--0---6---0---3/-12-000-13-00-15-0-13-00-12-0-10--12-000-13-00-15-0-13-00-12-0-10-|


  FILL 3
-----------------------------------|-------------------------------------------|
-----------------------------------|-------------------------------------------|
--7-------10-----------------------|-------------------------------------------|
--5-------8------------------------|-------------------------------------------|
--5-------8--------------------x5--|-------------x5----------------------------|
--5-------8----------0-10-12-0-----|---0-10-12-0-----13131313---101010---------|
                     1st & 3rd time                  ----2nd time--------------|


  WAH-FILL
------------------------------15-----------------------------------------------|
------------------------------15-----------------------------------------------|
--7------8------5------5------13-----------------------------------------------|
--x------x------x------x------12-----------------------------------------------|
--5------6------3------7------11-----------------------------------------------|
-------------------------------------------------------------------------------|
  ------------WAH-WAH----------------------------------------------------------|


  ENDING:
------------------------------------------------------------------------------|
------------------------------------------------------------------------------|
------------------------------------------------------------------------------|
------------------------------------------------------------------------------|
--0-0-0----0-0----0-0-0-------------------------------------------------------|
--0-0-0----0-0----0-0-0-------------------------------------------------------|


10.I AM

Intro x4:
    Part 1:                      Part 2:
E-------------------------|---------------------------------|
B-------------------------|---------------------------------|
G---------------------8---|---------------------8--5--------|
D---------------------x---|---------------------x--x--------|
A---------------------6---|---------------------6--3--------|
D---0-0-0-0-0---0-0-0-----|---0-0-0-0-0---0-0-0-------------|
    . . . . .   . . .         . . . . .   . . .

Verse x4:
     Part 1:                     Part 2:
E--------------------------|-------------------------------|
B--------------------------|-------------------------------|
G--------------------------|-------------------------------|
D--------------------------|-----------------------L-------|
A---------------------13---|---------------------13\10-10--|
D---0-0-0-0-0---0-0-0-13---|---0-0-0-0-0---0-0-0-13\10-10--|
    . . . . .   . . .          . . . . .   . . .

Prechorus:
       Part 1 x3:			Part 2:
E----------------------------------|-----------------------------------|
B----------------------------------|-----------------------------------|
G----------------------------------|-----------------------------------|
D----------------------------------|-----------------------------------|
A---5-5-5-5-5---5-5-5-----6-6-6-6--|--5-5-5-5-5-5-5-5-5/8-8-8-8-8-8-8--|
D---5-5-5-5-5---5-5-5-0-0-6-6-6-6--|--5-5-5-5-5-5-5-5-5/8-8-8-8-8-8-8--|


Chorus:
Guitar 1 x 4:
E------------------------------------|
B------------------------------------|
G-----2-3-2---2-3-2---2-3-2---2-3-2--|
D---0-------0-------0-------0--------|
A------------------------------------|
D------------------------------------|

Guitar 2:
  Part 1 x3:         Part 2:
E-----------------|----------------|
B---3--3--1-1--4--|--4--4--4-4--1--|
G-----------------|----------------|
D-----------------|----------------|
A-----------------|----------------|
D-----------------|----------------|

Repeat Intro but only 2x


Repeat Verse

Repeat Prechorus

Repeat Chorus x2

Bridge:
Guitar 1:
E------------------|
B----T-------------|
G---13----------13-|
D------------------|
A------------------|
D------------------|

Guitar 2 x2:
E---------------------------------|
B---------------------------------|
G---------------------------------|
D---------------------------------|
A-------------------------------6-|
D---0-0-0-0-300-0-0-0-300-0-300-6-|
PM  . . . . ... . . . ... . ...

Interlude:
E---------------------------------|-----------------------------------|
B---------------------------------|-----------------------------------|
G---------------------------------|-----------------------------------|
D---------------------------------|------------------------------L----|
A-------------------------------6-|-----------------------------6/8-8-|
D---0-0-0-0-300-0-0-0-300-0-300-6-|-0-0-0-0-300-0-0-0-300-0-300-6/8-8-|
PM  . . . . ... . . . ... . ...     . . . . ... . . . ... . ...

E---------------------------------|-------------------------------------|
B---------------------------------|-------------------------------------|
G---------------------------------|-------------------------------------|
D---------------------------------|-------------------------------------|
A-------------------------------6-|-------------------------13-13-13-13-|
D---0-0-0-0-300-0-0-0-300-0-300-6-|-0-0-0-0-300-0-0-0-300-0-13-13-13-13-|
PM  . . . . ... . . . ... . ...     . . . . ... . . . ... .

E---------------------------------|-----------------------------------|
B---------------------------------|-----------------------------------|
G---------------------------------|-----------------------------------|
D---------------------------------|------------------------------L----|
A-------------------------------6-|-----------------------------6/8-8-|
D---0-0-0-0-300-0-0-0-300-0-300-6-|-0-0-0-0-300-0-0-0-300-0-300-6/8-8-|
PM  . . . . ... . . . ... . ...     . . . . ... . . . ... . ...

::::x2::::
E---------------------------------|----------------------------------|
B---------------------------------|----------------------------------|
G---------------------------------|----------------------------------|
D---------------------------------|------------------L---------------|
A-------------------------------6-|-5---6---5---3---1/3--------------|
D---0-0-0-0-300-0-0-0-300-0-300-6-|-5---6---5---3---1/3--------------|
PM  . . . . ... . . . ... . ...


Chorus x2

Outro:
Guitar 1:
E---------------------------------|-----------------------------------|
B---------------------------------|-----------------------------------|
G---------------------------------|-----------------------------------|
D---------------------------------|------------------------------L----|
A-------------------------------6-|-----------------------------6/8-8-|
D---0-0-0-0-300-0-0-0-300-0-300-6-|-0-0-0-0-300-0-0-0-300-0-300-6/8-8-|
PM  . . . . ... . . . ... . ...     . . . . ... . . . ... . ...

E---------------------------------|----------------------------------------------|
B---------------------------------|----------------------------------------------|
G---------------------------------|----------------------------------------------|
D---------------------------------|----------------------------------------------|
A-------------------------------6-|-------------------------13-13-13-13-13-13-13-|
D---0-0-0-0-300-0-0-0-300-0-300-6-|-0-0-0-0-300-0-0-0-300-0-13-13-13-13-13-13-13-|
PM  . . . . ... . . . ... . ...     . . . . ... . . . ... .

Guitar 2 outro:
E---------------------------------|------------------------------|
B-------------------------------4-|----------------------------r-|
G---------------------------------|------------------------------|
D---------------------------------|------------------------------|
A---------------------------------|------------------------------|
D---------------------------------|------------------------------|

E---------------------------------|-----------------------------|
B-------------------------------4-|---------------4-4-4-4-4-4-4-|
G---------------------------------|-----------------------------|
D---------------------------------|-----------------------------|
A---------------------------------|-----------------------------|
D---------------------------------|-----------------------------|

11.THE AWAKENING

No guitar

12.SERENITY

Intro:
      x3
E------------------------------------------|
B------------------------------------------|
G------------------------------------------|
D------0------0-----0------0-----0-----0---|
A------------------------------------------|
D---0----0-------0-------3---3/6---6\\3----|
note: when sliding from 3/6 or 63, strike the second note (either 3 or 6)

Then:
E---------------------------------|
B---------------------------------|
G---------------------------------|
D------0------0-----0------0------|
A---------------------------------|
D---0----0-------0-------3---3/6--|


Verse is the intro\'s first part x8


Prechorus:
Guitar 1:
      x3
E-------------------------------------------|
B-------------------------------------------|
G-------------------------------------------|
D------0------0-----0------0-----0-----0----|
A-------------------------------------------|
D---5----5-------5-------8---8\\6---6\\3----|

	Then:
E--------------------------------------------|
B--------------------------------------------|
G--------------------------------------------|
D------0------0-----0------0------0------0---|
A--------------------------------------------|
D---5----5-------5-------8---8/10---10\\6----|

Prechorus:
Guitar 2:
	x3
E-----3----3-----6------4---1--------|
B---3---3------6---6--4---1----------|
G------------------------------------|
D------------------------------------|
A------------------------------------|
D------------------------------------|

	Then:
E-----3----3-----6------8---4--------|
B---3---3------6---6--8---4----------|
G------------------------------------|
D------------------------------------|
A------------------------------------|
D------------------------------------|


Chorus is Intro/verse and that same thing all the way until the next prechorus

Repeat that prechorus

Repeat Chorus

Interlude:
(acoustic)
E-----------0--------------------0-------------------------------------|
B------3---------3---------3--------3----------------------------------|
G--------2----------2---------2--------2-----------------7-------------|
D---0-------------------0-----------------0-----------6--------8---6---|
A--------------------------------------------------6-------------------|
D----------------------------------------------6-----------------------|

E-------------------------------0-------------------0---------------------------------------|
B-------------------------3----------3--------3--------3------------------------------------|
G----------7-----------------2----------2--------2--------2--------------7------------7-----|
D-----6-------8--6-----0-------------------0-----------------0----------6--8-6-----6----8-6-|
A---6---6-------------------------------------------------------------6-----------6-6-------|
D-------------------------------------------------------------------6-----------------------|

Interlude:
(electric)
E--------------------------------------------------|
B---3----------------------------------------------|
G---2----------------------------------------------|
D---0------------------------6-------6-6-6-6-6-6---|
A---0------------------------6-------6-6-6-6-6-6---|
D---0--------------------0---6-------6-6-6-6-6-6---|

E--------------0-----------------------------|
B--------------3------------3----------------|
G--------------2------------2----------------|
D--------------0-------------------------6---|
A----------------------------------------6---|
D---0------------------0-----------------6---|

ENJOY!!!!!
comments
print report bad tab
5 comments total. Showing first comments.
0 reply
heavenfeather wrote on August 20 2006, 10:58 am

Awesome tab! (Almost every tab I get, it was tabbed by you. Congrats on being UG's #1 tabber!)

0 reply
Metalsmack355 wrote on September 20 2006, 05:30 pm

the weird effect in I Stand Alone is dis:

gtr 2 w/ talkbox effect

|-------------------------------------------------------------------|
|-------------------------------------------------------------------|
|-------------------------------------------------------------------|
|10/12-12-12-12-12-12-12-12-10/12-12-12-12-12-12-10/12-12-12-12-12--|
|-x-----x--x--x--x--x--x--x--x-----x--x--x--x--x--x-----x--x--x--x--|
|10/12-12-12-12-12-12-12-12-10/12-12-12-12-12-12-10/12-12-12-12-12--|

|-------------------------------------------------------------------|
|-------------------------------------------------------------------|
|-------------------------------------------------------------------|
|12-12-12\10-10-10-10-8-8/10-10/12-12-12-12-12-12-12-6-6-6-6-6-6-6--|
|-x--x--x-----x--x--x-x-x-----x-----x--x--x--x--x--x-x-x-x-x-x-x-x--|
|12-12-12\10-10-10-10-8-8/10-10/12-12-12-12-12-12-12-6-6-6-6-6-6-6--|

|--------------------------------|
|--------------------------------|
|-----TR-------------------------|
|6---6-(8)-----------------------|
|x-------------------------------|
|6-------------------------------|

TR Trill

dats da solo.

0 reply
bazza391 wrote on October 20 2007, 08:02 am

re-think re-align lol
whats with the chours???
not sure where u got that from or how u think thats right my band plays it way different

D---------------------------------------------------------
A--2-33-3-333-3-------------------------------------------
F--2-22-2-222-2-------------------------------------------
C--0-00-0-000-0/5-55-5-555-5/3-33-3-333-3\5-55-5-555-5----
G--0-00-0-000-0/5-55-5-555-5/3-33-3-333-3\5-55-5-555-5----
C--0-00-0-000-0/3-33-3-333-3/1-11-1-111-1\3-33-3-333-3----

D----------------------------------------------
A--2-33-3-333-3--------------------------------
F--2-22-2-222-2--------------------------------
C--0-00-0-000-0/5-55-5-555-5/3333333\2222222---
G--0-00-0-000-0/5-55-5-555-5/3333333\2222222---
C--0-00-0-000-0/3-33-3-333-3/1111111\0000000---

Thats how ur sposed to do the first chours anyway



I want to post or [tab]
guest
You may want to rate the tab now too:
select rating
Please do not post tabs as comments. Select "correction" instead!