Oops, an error
Loading. Please wait.

Godsmack Bass Tab

3,694 views 3 this week
no commentswrite comment
1 2 3 4 5
excellent!
x 1
Autoscroll
+/-
esc
set tempo
stop
Contributor
NEW! There's an official Ultimate Guitar app which is ideal
for learning songs when you're away from computer. Get the app
WARNING: You are trying to view
                                    content from Ultimate-Guitar.com
                                    in an unauthorized application,
                                    which is prohibited.

                                    Please use an official Ultimate
                                    Guitar Tabs application for iPhone,
                                    iPad or Android to access legitimate
                                    chords, guitar, bass, and drum tabs
                                    from Ultimate-Guitar.com database.

                                    Type "ultimate guitar tabs" in Apple
                                    App Store's or Android Market's
                                    search to find the application.
Band- Godsmack
Album- Godsmack

Track Listings:
1.Moon Baby
2.Whatever
3.Keep Away
4.Time Bomb
5.Bad Religion
6.Immune
7.Someone In London
8.Get Up, Get Out
9.Now Or Never
10.Stress
11.Situation
12.Voodoo

---------------------------------------------------------

1.MOON BABY

Dropped D Tuning

Verse
G :| ----------------|---------------- |
D :|*----------------|----------------*|
A :|*----------------|----------------*|
D :| 44444-4444--022-|44444-4444557755 |

Verse Variation
G :|----------------|----------------|
D :|----------------|----------------|
A :|----------------|----------------|
D :|44444-4444--022-|44444-4444------|

Chorus
G :| ----------------|---------------- |
D :|*----------------|----------------*|
A :|*----565-----565-|----454---------*|
D :| 0-00---0-0-0----|4-44---4-4-44-2- |

"Why is it everyday?" part (Post-Chorus)
G :| ---------------- |
D :|*----------------*|
A :|*----------------*|
D :| 00000-0000--022- |

End Riff 1
G :| ---------------- |
D :|*----------------*|
A :|*----------------*|
D :| 04-04-04-04-454- |

End Riff 2
G :| ---------------- |
D :| ----2-------2--- |
A :| --2-------2----- |
D :| 2-------2------- |

End Riff 3
G :| ---------------- |
D :| ---------------- |
A :| ---------------- |
D :| 04-04-04-04----- |


Order:

Verse 6x
Chorus 2x
Post-Chorus 2x
Verse Variation
Verse 4x
Chorus 4x
Post-Chorus 2x
Verse 1x (Different Rhythm)
Post-Chorus 2x
Verse 1x (Different Rhythm)
Play 4th string D at fret 4
End Riff 1 20x
End Riff 2 1x
End Riff 1 11x
End Riff 3 1x
End Riff 1 15x
End Riff 4 1x

2.WHATEVER

FIRST RIFF: Play many times

G --------------------------|
D --------------------------|
A --------------------------|
C#--0-0---00-00--0----------|


PRE-CHORUS:

G ---------------------------------|
D ---------------------------------|
A ------3-~--------------3-~-1-~---|
C#--0-~-----5-~------0-~-----------|


CHORUS:

G -------------------------------------------------|
D -------------------------------------------------|
A -------------------------------------------------|
C#--0-~--5-4-3-0-~--5-4-3---0-~--5-4-3--3-3-3-3----| (Play the last four pretty short)

3.KEEP AWAY

Dropped D-tuning
(d,a,d,g)

Verse Riff
G----------------------------------------------------|
D----------------------------------------------------|
A----------------------------------------------------|
D-0-0-1--1-2-1-2-3-3--3-4-2-5--4-6-6-6-4-5-4-3-------|


Chorus Riff
G---------------------------------------------|
D---------------------------------------------|
A------7-6-5-3-3-3-3-3---3-5------------------|
D--0-5-----------------------6-5--------------|


Bass riff after 2nd Chorus
G---------------------|
D---------------------|
A---------------------|
D--3-3-3-3--4-4-4-4---|


2ND BASS RIFF AFTER 2ND CHORUS
G---------------------------------------------------------|
D---------------------------------------------------------|
A---5-5-5-5--7-7-7-7--5-5-5-5--8-8-8-8--7-7-7-7-----------|
D------------------------------------------------9-9-9-9--|


VERSE RIFF
CHORUS RIFF
VERSE RIFF
CHORUS RIFF
BASS RIFF AFTER 2ND CHORUS
2ND BASS RIFF AFTER 2ND CHORUS
VERSE RIFF
CHORUS RIFF

4.TIME BOMB

Intro/Interludes
Repeat Several Times
G|--------------|
D|--------------|
A|--------------|
D|--0h0h0h0h0h0-|

Verse
Repeat Several Times
G|--------------------------------------|
D|--------------------------------------|
A|--------------------------------------|
D|--3-3-33-4-333333\p-3-3-33-5-333333\p-|

Chorus
G|---------------------|
D|---------------------|
A|---------------------|
D|--5-5-5h7-7p77-7h7h7-|

Verse 2

Chorus 2

Interlude 2

Verse 3

Chorus 3

Interlude 3

Pre Outro
G|----------------------------------------------|
D|----------------------------------------------|
A|----------------------------------------------|
D|--3h3h4h3h3h4h3h3h5-5h3h3h4h3h3h4h3h3h5-5-2-1-|

Interlude 4

Then Play This A Few Times
G|----------------------|
D|----------------------|
A|----------------------|
D|--3h3h4h3h3h4h3h3-5-5-|

Outro
Repeat Several Times
G|-------------------------------------------------------------|
D|-------------------------------------------------------------|
A|-------------------------------------------------------------|
D|--3h3h3h3h3h3h3h3h3h3h3h3h3h3h-3h2h3h2h3h2h3h2h3h2h3h2h3h2h3-|

5.BAD RELIGION

Intro -

-|--------------------|
-|--------------------|
-|--------------------|
-|-0--0--0-0--0--0-0--|

Verse -

-|---------------------------------------------|
-|---------------------------------------------|
-|---------------------------------------------|
-|-0--0--0-0--0--0--0-0--0--0--0-0--0--0--0-0--|

Chorus -

-|--------------------------------------------------------------------|
-|--------------------------------------------------------------------|
-|-/3-3-3-3-5-3-3-3-5-3-3-3-5-3-3-3-/5-5-5-5-8-5-5-5-8-5-5-5-8-5-5-5--|
-|--------------------------------------------------------------------|

Breakdown before "Solo" -

-|----------------------------------|
-|----------------------------------|
-|-7\0-7-8p7-7-7-7-8p7-7-7-7-5-3-2--|

"Solo" Part -
                                                (Last time)
-|---------------------------------------------|------------------------|
-|---------------------------------------------|------------------------|
-|-5-------3-------------3-------2-------------|-3-------5--------------|
-|---0-0-0---0-0-3-1-3-5---0-0-0---0-0-3-1-3-5-|---0-0-0---0-0-3-1-3-5--|

6.IMMUNE

Intro and verses    (part 1)
G    ------------------------------------|     Play this with a little
D    ------------------------------------|     chorus until Sully sings
A    ------5----5----5/7--7--7--7--------|     "Face it, Try it........"
D(E) 0--0-----0----0---------------------|

Then Play this...

Chorus  (part 2)
G     ---------------------------------|
D     ---------------------------------|
A     ---------------------------------|
D     0--0--0-2-0-3-0-2/3--3--3-3------|

For the second verse, play part one again.  Then play the second part for the
Second Chorus.  But after the second chorus, play this (part 3) just once.

Bridge   (part 3)
G  -----------------------------------------------------------------|
D  -----------------------------------------------------------------|
A  -----------------------------------------------------------------|
D  0-r-0-0-r-0-0-r-0-0-r-0-0/2-2---0-r-0-0-r-0-0-r-0-0-r-0-0/3-3----|

A  ------------------------------------------------------------------|
D  0-r-0-0-r-0-0-r-0-0-r-0-0/2-2---0-r-0-0-r-0-0-r-0-0-r-0-0/2-2/3---|

7.SOMEONE IN LONDON

Tuning : (D,A,D,G)

Riff 1

G ------------------------------|
D ------------------------------|
A ------------------------------|
D –0--------------0---3---2---0-|
  (1 + 2 + 3 + 4)(1 + 2 + 3 + 4)

Riff 2

G ----------------|
D ----------------|
A ----------------|
D ---3---2---1----|

Sequence:

Rest 8 beats
Riff 1 1x \____Do this
Riff 2 1x /      5x
Riff 2 3x

8.GET UP, GET OUT

Dropped D Tuning

Intro (play a few times)
G :| ----------------|----------------|
D :|*----------------|----------------|
A :|*----------------|----------------|
D :| 0---------------|0-------3---2---|

G :|----------------|---------------- |
D :|----------------|----------------*|
A :|----------------|----------------*|
D :|0---------------|3-----2-----1--- |

End: Play just 2nd line a few times
the end with low D:|0-----|

Verse
        Play Many X           Last Time
G :| ---------------- ||--------------------||
D :|*----------------*||--------------------||
A :|*----355-----3555*||----355-------------||
D :| 0-0----0-0-0---- ||0-0-----3-2-5-3-2-3-||

Pre-Chorus (a couple times)
G :| ----------------*|
D :|*----------------*|
A :|*----------------*|
D :| 5--6--5--6--5-6- |

Chorus
G :| ------------------------------|--------------------- |
D :|*------------------------------|---------------------*|
A :|*------------------------------|---------------------*|
D :| 0-0-10-12-12-0-0-0-10-12-12-12|0-0-10-12-12-3-331-11 |

G :|-------|
D :|-------| Before Solo?
A :|5------|
D :|-------|

Guitar Solo:

Play many x under solo:
G :| ------4x-------- || --------4x------ ||
D :|*----------------*||*----355-----3555*||
A :|*----355-----3555*||*----------------*||
D :| 0-0----0-0-0---- || 5-5----5-5-5---- ||

After the solo goto the other bits then:

G :1-1-1-1-4-4-4-4-|7-7-7-7-10-10-10-10-|
D :----------------|--------------------|
A :----------------|--------------------|
D :----------------|--------------------|

G :13-13-13-13-13-13-13-13-|13-13-13-13-13-13-13-13-|
D :------------------------|------------------------|
A :------------------------|------------------------|
D :------------------------|------------------------|

end with main verse riff

9.NOW OR NEVER

intro/verse
g-------------------------------------------------------------------------------|
d---------------3~------------------------------------------3~------------------|
a-----------------------------------------------------------------------------5-|
e--0-0-0-0-0---------0-0-0-0-0-3-5--------0-0-0-0-0------0-0-0-0-0--------------|

before chorus
a-------5~-5-----------------------|
e-------------5--3-----------------|

chorus      - -just like verse but a little different

g-----------------------------------------------------------------------------|
d---------------3~--------------------------------------3~--------------------|
a-----------------------------------------------------------------------------|
e---0-0-0-0-0--------0-0-0-0-0-3-5----0-0-0-0-0---------0-0-0-0-0-3-5---------|

10.STRESS

INTRO-VERSE [0:10]
|-------------------------------------------------------------|
|-------------------------------------------------------------|
|-------------------------------------------------------------|
|-7/9-9-9-9---7/9-9-9-9---7-9-10-----7/9-9-9-9---7/9-9-9-9--9-|x6

CHORUS [0:40]
|----------------------------|
|----------------------------|
|-7---7--7-7--5---5-5--10--5-|
|----------------------------|x1

VERSE [0:45]
|-------------------------------------------------------------|
|-------------------------------------------------------------|
|-------------------------------------------------------------|
|-7/9-9-9-9---7/9-9-9-9---7-9-10-----7/9-9-9-9---7/9-9-9-9--9-|x1

CHORUS  [0:50]                    BASS FILL1 [0:55]
|----------------------------|    |-----------------------------|
|----------------------------|    |-----------------------------|
|-7---7--7-7--5----5-5--10-5-|    |-----------------------------|
|----------------------------|x1  |22-------22-------22-------22|x1

VERSE [1:05]
|-------------------------------------------------------------|
|-------------------------------------------------------------|
|-------------------------------------------------------------|
|-7/9-9-9-9---7/9-9-9-9---7-9-10-----7/9-9-9-9---7/9-9-9-9--9-|x6

CHORUS [1:35]
|----------------------------|
|----------------------------|
|-7---7--7-7--5----5-5--10-5-|
|----------------------------|x1

VERSE [1:40]
|-------------------------------------------------------------|
|-------------------------------------------------------------|
|-------------------------------------------------------------|
|-7/9-9-9-9---7/9-9-9-9---7-9-10-----7/9-9-9-9---7/9-9-9-9--9-|x1

CHORUS [1:45]
|----------------------------|
|----------------------------|
|-7---7--7-7--5----5-5--10-5-|
|----------------------------|x1

GUITAR FILL (WAIT 4 RIFFS)

BASS FILL2 [2:00]
|-----------------------------|
|-----------------------------|
|-----------------------------|
|-2-2/0--\2-2/6---------------|x4

BRIDGE 1 [2:20]
|-------------------------------------------------------------|
|-------------------------------------------------------------|
|-------------------------------------------------------------|
|-7/9-9-9-9---7/9-9-9-9---7-9-10-----7/9-9-9-9---7/9-9-9-7--7-|x4

BASS FILL2 [2:40]
|-----------------------------|
|-----------------------------|
|-----------------------------|
|-2-2/0--\2-2/6---------------|x4

BRIDGE 1 [2:49]
|-------------------------------------------------------------|
|-------------------------------------------------------------|
|-------------------------------------------------------------|
|-7/9-9-9-9---7/9-9-9-9---7-9-10-----7/9-9-9-9---7/9-9-9-7--7-|x4

BRIDGE 2 [3:18]
|---------------------------------------------------------------------|
|---------------------------------------------------------------------|
|-------5\2~-----/5-----5\2~-----/5-----5\2~-----/5-----5\2~-----/5---|
|-5~---------------5~--------------5~--------------5~--------------5~-|

BRIDGE 3 - PART 1 (SLIDES BEFORE SWITCHING STRINGS ARE FAST) [4:03]
|-------------------------------------------------------------------|
|-------------------------------------------------------------------|
|-5\2-2-2-2-2-2-22/5--------------\5\2-2-2-2-2-2-22/5---------------|
|-------------------5-5-5-5-5-5-55-------------------5-5-5-5-5-5-55-|x1

BRIDGE 4 - PART 2 [4:24]
|--------------------------------------------------------|
|--------------------------------------------------------|
|-5\2-2-2-2-2-2-22/5--------------\5\2-2-2-2-2-2-2-22/16^|
|-------------------5-5-5-5-5-5-55-----------------------|x1

OUTRO - PART 1 [4:43]
|-----------------------------------------------------------------|
|-----------------------------------------------------------------|
|-----------------------------------------------------------------|
|-7/9-9-9-9---7/9-9-9-9---7-9-10---7/9-9-9-9---7/9-9-9-9---7-9-10-|x3

OUTRO - PART 2 [4:57]
|-------------------------------------------------------|
|-------------------------------------------------------|
|-------------------------------------------------------|
|-7/9-9-9-9---7/9-9-9-9--7-9-10---7/9-9-9-9---7/9-9-9-9-|

11.SITUATION

Don't Know

12.VOODOO

G:----------------------------|
d:----------4-5-4-------------|
A:----------------4---3-4-3---|
D:-3-x-33---------------------|

Chorus (Follows the Chords played by the guitar, I'm 95% sure this is
right)


G:----------------------------------------------------------------|
d:----------------------------------------------------------------|
A:----------------------------------------------------------------|
D:-3-3-3-3-3-3-3-3-1-1-1-3-3-3--1-1-3-3-3-3-3-3-3-3/6-6-6-5/6-5\4-|
comments
We did not receive enough feedback on this tab! Please rate:
print report bad tab
1 2 3 4 5
I want to post or [tab]
guest
You may want to rate the tab now too:
select rating
Please do not post tabs as comments. Select "correction" instead!