Oops, an error
Loading. Please wait.

Godsmack Tab

ver2
ver2

Album

More versions @911Tabs.com
2,139 views 1 this week
4 commentsread comments
1 2 3 4 5
worth learning
x 3
Autoscroll
+/-
esc
set tempo
stop
Contributor
Difficulty
intermediate
Hey! There's an official Ultimate Guitar app which is ideal
for learning songs when you're away from computer. Get the app
WARNING: You are trying to view
                                    content from Ultimate-Guitar.com
                                    in an unauthorized application,
                                    which is prohibited.

                                    Please use an official Ultimate
                                    Guitar Tabs application for iPhone,
                                    iPad or Android to access legitimate
                                    chords, guitar, bass, and drum tabs
                                    from Ultimate-Guitar.com database.

                                    Type "ultimate guitar tabs" in Apple
                                    App Store's or Android Market's
                                    search to find the application.
Godsmack
---------

album- Godsmack
year-  1998


contents
---------

1.  Moon Baby
2.  Whatever
3.  Keep Away
4.  Time Bomb
5.  Bad Religion
6.  Immune
7.  Someone In London
8.  Get Up Get Out
9.  Now Or Never
10. Stress
11. Situation
12. Voodoo



1. Moon Baby
-------------

Drop D (D A D G B E)


Intro    gtrs 1 & 2

 /-----------------------------2x---------------------------\

|-------------------------|----------------------------------|
|-------------------------|----------------------------------|
|-------------------------|----------------------------------|
|-------------------------|----------------------------------|
|4-4-4-4---4-4-4---0-2-2--|4-4-4-4---4-4-4/5--5/7--7\5--5\4--|
|4-4-4-4---4-4-4---0-2-2--|4-4-4-4---4-4-4/5--5/7--7\5--5\4--|



Verse 1

 /-----------------------------4x---------------------------\

|-------------------------|----------------------------------|
|-------------------------|----------------------------------|
|-------------------------|----------------------------------|
|-------------------------|----------------------------------|
|4-4-4-4---4-4-4---0-2-2--|4-4-4-4---4-4-4/5--5/7--7\5--5\4--|
|4-4-4-4---4-4-4---0-2-2--|4-4-4-4---4-4-4/5--5/7--7\5--5\4--|


Pre-Chorus 1

|---------------------------------|-------------------------------|
|---------------------------------|-------------------------------|
|--------7/8-------------7/8\7----|--------6/7--------------------|
|--------x---------------x--------|--------6/7--------------------|
|0--0-0--5/6--0---0-0-0--5/6\5p0--|4--4-4--4/5--4-4---4-4-4-4--2--|
|0--0-0-------0---0-0-0-----------|4--4-4-------4-4---4-4-4-4--2--|

|----------------------------------|-------------------------------|
|----------------------------------|-------------------------------|
|--------7/8--------------7/8\7----|--------6/7--------------------|
|--------x----------------x--------|--------6/7--------------------|
|0--0-0--5/6--0-0--0-0-0--5/6\5p0--|4--4-4--4/5--4-4---4-4-4-4--2--|
|0--0-0-------0-0--0-0-0-----------|4--4-4-------4-4---4-4-4-4--2--|


Chorus 1

 /----------2x-----------\

|-------------------------|-------------------------|------------------|
|-------------------------|-------------------------|------------------|
|-------------------------|-------------------------|------------------|
|-------------------------|-------------------------|------------------|
|0-0-0-0---0-0-0---0-2-2--|4-4-4-4---4-4-4---0-2-2--|4-4-4-4---4-4-4---|
|0-0-0-0---0-0-0---0-2-2--|4-4-4-4---4-4-4---0-2-2--|4-4-4-4---4-4-4---|


Verse 2

 /-----------------------------4x---------------------------\

|-------------------------|----------------------------------|
|-------------------------|----------------------------------|
|-------------------------|----------------------------------|
|-------------------------|----------------------------------|
|4-4-4-4---4-4-4---0-2-2--|4-4-4-4---4-4-4/5--5/7--7\5--5\4--|
|4-4-4-4---4-4-4---0-2-2--|4-4-4-4---4-4-4/5--5/7--7\5--5\4--|


Pre-Chorus 2

|---------------------------------|-------------------------------|  ---
|---------------------------------|-------------------------------|   |
|--------7/8-------------7/8\7----|--------6/7--------------------|   |
|--------x---------------x--------|--------6/7--------------------|   |
|0--0-0--5/6--0---0-0-0--5/6\5p0--|4--4-4--4/5--4-4---4-4-4-4--2--|   |
|0--0-0-------0---0-0-0-----------|4--4-4-------4-4---4-4-4-4--2--|   2x
                                                                      |
|----------------------------------|-------------------------------|  |
|----------------------------------|-------------------------------|  |
|--------7/8--------------7/8\7----|--------6/7--------------------|  |
|--------x----------------x--------|--------6/7--------------------|  |
|0--0-0--5/6--0-0--0-0-0--5/6\5p0--|4--4-4--4/5--4-4---4-4-4-4--2--|  |
|0--0-0-------0-0--0-0-0-----------|4--4-4-------4-4---4-4-4-4--2--| ---



Chorus 2

 /----------2x-----------\

|-------------------------|-------------------------|
|-------------------------|-------------------------|
|-------------------------|-------------------------|
|-------------------------|-------------------------|
|0-0-0-0---0-0-0---0-2-2--|4-4-4-4---4-4-4---0-2-2--|
|0-0-0-0---0-0-0---0-2-2--|4-4-4-4---4-4-4---0-2-2--|

|-------------------------------------|
|-------------------------------------|
|-------------------11-11\9--9-9-9\7--|
|--------------------x--x----x-x-x----|
|4-4-4-4-4---4-4-4---9--9\7--7-7-7\5--|
|4-4-4-4-4---4-4-4--------------------|

|-------------------------|-------------------------|
|-------------------------|-------------------------|
|-------------------------|-------------------------|
|-------------------------|-------------------------|
|0-0-0-0---0-0-0---0-2-2--|0-0-0-0---0-0-0---0h2-2--|
|0-0-0-0---0-0-0---0-2-2--|0-0-0-0---0-0-0---0h2-2--|

|-------------------------|-------------------------|-------------|
|-------------------------|-------------------------|-------------|
|-------------------------|-------------------------|-------------|
|-------------------------|-------------------------|-------------|
|4-4-4-4---4-4-4---0h2-2--|4-4-4-4---4-4-4---0h2-2--|0------------|
|4-4-4-4---4-4-4---0h2-2--|4-4-4-4---4-4-4---0h2-2--|0------------|


Interlude   gtr 1

|----------------------------|----------------------------|
|----------------------------|----------------------------|
|----------------------------|----------------------------|
|----------------------------|----------------------------|
|-/9-------------------------|----------------------------|
|----------------------------|----------------------------|


gtr 2

|----------------------------|----------------------------|
|----------------------------|----------------------------|
|----------------------------|----------------------------|
|----------------------------|----------------------------|
|----------------------------|----------------------------|
|----------------------------|0-4---0-4---0-4---0-4---4---|
                              PM-------------------|


gtr 1

|------------------------|------------------------|
|------------------------|------------------------|
|------------------------|------------------------|
|------------------------|------------------------|
|-(9)--------------------|5-4---5-4---5-4---5-4---|
|------------------------|------------------------|


gtr 2

|------------------------|------------------------|
|------------------------|------------------------|
|------------------------|------------------------|
|------------------------|------------------------|
|------------------------|------------------------|
|0-4---0-4---0-4---0-4---|0-4---0-4---0-4---0-4---|



gtrs 1 & 2

 /--------------8x------------\

|------------------------------|
|------------------------------|
|------------------------------|
|------------------------------|
|0-4---0-4---0-4---0-4p0-4^r---|
|0-4---0-4---0-4---0-4p0-4^r---|


gtr 1     w/ wah


|--------------------------------------------------| ---
|--------------------------------------------------|  |
|-/11-11-11-11-11-11-11-11-11-11-11-11-11-11-11-11\|  |
|--x---x--x--x--x--x--x--x--x--x--x--x--x--x--x--x-|  |
|-/9---9--9--9--9--9--9--9--9--9--9--9--9--9--9--9\|  |
|--------------------------------------------------|  |
                                                      |
|-----------------------------------|                 |
|-----------------------------------|                 |
|-\9-9-9-9-9-9-9-9-9-9-9-9-9-9-9-9--|                 |
|--x-x-x-x-x-x-x-x-x-x-x-x-x-x-x-x--|                 |
|-\7-7-7-7-7-7-7-7-7-7-7-7-7-7-7-7--|                 |
|-----------------------------------|                 2x
                                                      |      
wah off                                               |
                                                      |
 /--------------2x------------\                       |
                                                      | 
|------------------------------|                      |
|------------------------------|                      |
|------------------------------|                      |
|------------------------------|                      |
|0-4---0-4---0-4---0-4p0-4^r---|                      |
|0-4---0-4---0-4---0-4p0-4^r---|                     ---

|-----------------|-------------------------|
|-----5----5--5---|5---5----5---5-----------|
|-----4----4--4---|4---4----4---4-----------|
|2----2----2--2---|2---2----2---2-----------|
|2----2----2--2---|2---2----2---2-----------|
|2----2----2--2---|2---2----2---2---2/14\---|

 /--------------2x------------\

|------------------------------|-----------------------------|
|------------------------------|-----------------------------|
|------------------------------|-----------------------------|
|------------------------------|-----------------------------|
|------------------------------|-----------------------------|
|0-4---0-4---0-4---0-4---4^r---|0-4---0-4---0-4---0-4p0-4^r--|
 PM-------------------|

|------------------------------|
|------------------------------|
|------------------------------|
|------------------------------|
|0-4---0-4---0-4---0-4p0-4^r---|
|0-4---0-4---0-4---0-4p0-4^r---|


|--------------------------------------------------|
|--------------------------------------------------|
|-/11-11-11-11-11-11-11-11-11-11-11-11-11-11-11-11\|
|--x---x--x--x--x--x--x--x--x--x--x--x--x--x--x--x-|
|-/9---9--9--9--9--9--9--9--9--9--9--9--9--9--9--9\|
|--------------------------------------------------|

|-----------------------------------|
|-----------------------------------|
|-\9-9-9-9-9-9-9-9-9-9-9-9-9-9-9-9--|
|--x-x-x-x-x-x-x-x-x-x-x-x-x-x-x-x--|
|-\7-7-7-7-7-7-7-7-7-7-7-7-7-7-7-7--|
|-----------------------------------|

wah off

|------------------------------|-----------------------|
|------------------------------|-----------------------|
|------------------------------|-----------------------|
|------------------------------|-----------------------|
|0-4---0-4---0-4---0-4p0-4^r---|0-4---0-4---0-4---0-4--|
|0-4---0-4---0-4---0-4p0-4^r---|0-4---0-4---0-4---0-4--|

 /--------------8x------------\

|------------------------------|
|------------------------------|
|------------------------------|
|------------------------------|
|0-4---0-4---0-4---0-4p0-4^r---|
|0-4---0-4---0-4---0-4p0-4^r---|


|--------------------------------------------------| ---
|--------------------------------------------------|  |
|-/11-11-11-11-11-11-11-11-11-11-11-11-11-11-11-11\|  |
|--x---x--x--x--x--x--x--x--x--x--x--x--x--x--x--x-|  |
|-/9---9--9--9--9--9--9--9--9--9--9--9--9--9--9--9\|  |
|--------------------------------------------------|  |
                                                      |
|-----------------------------------|                 2x
|-----------------------------------|                 |
|-\9-9-9-9-9-9-9-9-9-9-9-9-9-9-9-9/-|                 |
|--x-x-x-x-x-x-x-x-x-x-x-x-x-x-x-x--|                 |
|-\7-7-7-7-7-7-7-7-7-7-7-7-7-7-7-7/-|                 |
|-----------------------------------|                ---

|--------------------------------------------------|
|--------------------------------------------------|
|-/11-11-11-11-11-11-11-11-11-11-11-11-11-11-11-11\|
|--x---x--x--x--x--x--x--x--x--x--x--x--x--x--x--x-|
|-/9---9--9--9--9--9--9--9--9--9--9--9--9--9--9--9\|
|--------------------------------------------------|

|-----------------------------------|
|-----------------------------------|
|-\9-9-9-9-9-9-9-9-9-9-9-9-9-9-9-9--|
|--x-x-x-x-x-x-x-x-x-x-x-x-x-x-x-x--|
|-\7-7-7-7-7-7-7-7-7-7-7-7-7-7-7-7--|
|-----------------------------------|

|------------------------------|-----------------------|------------|
|------------------------------|-----------------------|------------|
|------------------------------|-----------------------|--sound-----|
|------------------------------|-----------------------|--effects---|
|0-4---0-4---0-4---0-4p0-4^r---|0-4---0-4---0-4---0-4--|------------|
|0-4---0-4---0-4---0-4p0-4^r---|0-4---0-4---0-4---0-4--|------------|

 
Tab Legend
-----------

PM        palm mute
/         slide up
\         slide down
x         muted string
p         pull off
^         bend half step
r         release



2. Whatever
------------

Drop C (C G C F A D)



Intro     gtrs 1 & 2

                              /---------7x---------\

|--------------|-------------|----------------------|--------------|
|--------------|-------------|--------10---10---10--|--------------|
|--sound-------|-------------|--------13---13---13--|--------------|
|--effects-----|------5------|----------------------|--------------|
|--------------|------5------|0-0-------------------|0-0-----------|
|--------------|------5------|0-0-------------------|0-0-----------|
                      vol.    PM-|                   PM-|
                      swell   


Verse 1

 /-------8x-----------\

|----------------------|
|--------10---10---10--|
|--------13---13---13--|
|----------------------|
|0-0-------------------|
|0-0-------------------|
 PM-|


Pre-Chorus 1

|-------------------------------------|-----------------------------------|
|-------------------------------------|-----------------------------------|
|-----------7-------------------------|---------7---------5---------------|
|0----------7----------6--------------|0--------7---------5----5-5---3-3--|
|0----------5----------6------6-6-----|0--------5---------3----5-5---3-3--|
|0---------------------6------6-6-----|0-----------------------5-5---3-3--|
                              PM-|


Chorus 1

|-----------------|-----------------|-----------------|-------------|
|-----------------|-----------------|-----------------|-------------|
|-----------------|-----------------|-----------------|-------------|
|0-0---6---5---3--|0-0---6---5---3--|0-0---6---5---3--|-------------|
|0-0---6---5---3--|0-0---6---5---3--|0-0---6---5---3--|0-0----------|
|0-0---6---5---3--|0-0---6---5---3--|0-0---6---5---3--|0-0----------|



Interlude

 /-------4x-----------\

|----------------------|
|--------10---10---10--|
|--------13---13---13--|
|----------------------|
|0-0-------------------|
|0-0-------------------|
 PM-|


Verse 2

 /-------7x-----------\

|----------------------|---------------------------|
|--------10---10---10--|---------10----------------|
|--------13---13---13--|---------13----------------|
|----------------------|---------------------------|
|0-0-------------------|0-0--------------5--3---2--|
|0-0-------------------|0-0--------------5--3---2--|
 PM-|                   PM               PM------|


Pre-Chorus 2

 /-----------------------------------2x----------------------------------\

|-------------------------------------|-----------------------------------|
|-------------------------------------|-----------------------------------|
|-----------7-------------------------|---------7---------5---------------|
|0----------7----------6--------------|0--------7---------5----5-5---3-3--|
|0----------5----------6------6-6-----|0--------5---------3----5-5---3-3--|
|0---------------------6------6-6-----|0-----------------------5-5---3-3--|
                              PM-|


Chorus 2

|-----------------|-----------------|-----------------|----------------|
|-----------------|-----------------|-----------------|----------------|
|-----------------|-----------------|-----------------|----------------|
|0-0---6---5---3--|0-0---6---5---3--|0-0---6---5---3--|----3--3--3--3--|
|0-0---6---5---3--|0-0---6---5---3--|0-0---6---5---3--|----3--3--3--3--|
|0-0---6---5---3--|0-0---6---5---3--|0-0---6---5---3--|0---3--3--3--3--|


gtr 1

|-----------------|-----------------|-----------------|-------------------|
|-----------------|-----------------|-----------------|-------------------|
|-----------------|-----------------|-----------------|-------------------|
|0-0---6---5---3--|0-0---6---5---3--|0-0---6---5---3--|----3---3---3---3--|
|0-0---6---5---3--|0-0---6---5---3--|0-0---6---5---3--|----3---3---3---3--|
|0-0---6---5---3--|0-0---6---5---3--|0-0---6---5---3--|0---3---3---3---3--|


gtr 2    w/ wah

|-----------------|-----------------|-----------------|
|-----------------|-----------------|-----------------|
|7----13--12--10--|7----13--12--10--|7----13--12--10--|
|x-----x---x---x--|x-----x---x---x--|x-----x---x---x--|
|5----11--10---8--|5----11--10---8--|5----11--10---8--|
|-----------------|-----------------|-----------------|

 wah off

|--------------------------------|
|--------------------------------|
|x-x-10--x-x-10--x-x-10--x-x-10--|
|x-x-10--x-x-10--x-x-10--x-x-10--|
|x-x--8--x-x--8--x-x--8--x-x--8--|
|--------------------------------|


gtr 1

|--------------|
|--------------|
|--------------|
|--------------|
|--------------|
|0-0-----------|
|0-0-----------|
 PM-|


gtr 2

|--------------|
|--------------|
|7-7-----------|
|7-7-----------|
|5-5-----------|
|--------------|



Bridge     gtr 1 & 2

 /----------------------2x---------------------\

|-----------|-----------|-----------|-----------|
|-----------|-----------|-----------|-----------|
|-----------|-----------|-----------|-----------|
|0----------|0----------|0----------|0----------|
|0--0-0-----|0--0-0-----|0--0-0-----|0--0-0-----|
|0--0-0-----|0--0-0-----|0--0-0-----|0--0-0-----|
    PM-|        PM-|        PM-|        PM-|


Chorus 3

|-----------------|-----------------|-----------------|----------------|
|-----------------|-----------------|-----------------|----------------|
|-----------------|-----------------|-----------------|----------------|
|0-0---6---5---3--|0-0---6---5---3--|0-0---6---5---3--|----3--3--3--3--|
|0-0---6---5---3--|0-0---6---5---3--|0-0---6---5---3--|----3--3--3--3--|
|0-0---6---5---3--|0-0---6---5---3--|0-0---6---5---3--|0---3--3--3--3--|


gtr 1

|-----------------|-----------------|-----------------|-------------------|
|-----------------|-----------------|-----------------|-------------------|
|-----------------|-----------------|-----------------|-------------------|
|0-0---6---5---3--|0-0---6---5---3--|0-0---6---5---3--|----3---3---3---3--|
|0-0---6---5---3--|0-0---6---5---3--|0-0---6---5---3--|----3---3---3---3--|
|0-0---6---5---3--|0-0---6---5---3--|0-0---6---5---3--|0---3---3---3---3--|


gtr 2    w/ wah

|-----------------|-----------------|-----------------|
|-----------------|-----------------|-----------------|
|7----13--12--10--|7----13--12--10--|7----13--12--10--|
|x-----x---x---x--|x-----x---x---x--|x-----x---x---x--|
|5----11--10---8--|5----11--10---8--|5----11--10---8--|
|-----------------|-----------------|-----------------|

|--------------------------------|
|--------------------------------|
|x-x-10--x-x-10--x-x-10--x-x-10--|
|x-x-10--x-x-10--x-x-10--x-x-10--|
|x-x--8--x-x--8--x-x--8--x-x--8--|
|--------------------------------|


Outro     gtrs 1 & 2

 /----------7x--------\

|----------------------|--------------|
|--------10---10---10--|--------------|
|--------13---13---13--|--------------|
|----------------------|--------------|
|0-0-------------------|0-0-----------|
|0-0-------------------|0-0-----------|
 PM-|                   PM-|



Tab Legend
-----------

PM       palm mute
x        muted string




3. Keep Away
-------------

Drop D (D A D G B E)


Intro     gtr 1

 /------------4x-------------\

|-----------------------------|
|-----------------------------|
|7--7-7--7-7--7-7--7-7-7-7-7--|
|x--x-x--x-x--x-x--x-x-x-x-x--|
|5--5-5--5-5--5-5--5-5-5-5-5--|
|-----------------------------|


gtrs 1 & 2

 /-------------------------3x------------------------\

|----------------------|------------------------------|
|----------------------|------------------------------|
|----------------------|------------------------------|
|0--0---0h3-3-3-3-3--3-|3/5-5--5--5-5-5/6-6-6-6-3--0--|
|0--0---0h3-3-3-3-3--3-|3/5-5--5--5-5-5/6-6-6-6-3--0--|
|0--0---0h3-3-3-3-3--3-|3/5-5--5--5-5-5/6-6-6-6-3--0--|

|----------------------|-----------------------------------|
|----------------------|-----------------------------------|
|----------------------|-----------------------------------|
|0--0---0h3-3-3-3-3--3-|x-x--5-5-5--5--5-5-5/6-6-6-6-3--0--|
|0--0---0h3-3-3-3-3--3-|x-x--5-5-5--5--5-5-5/6-6-6-6-3--0--|
|0--0---0h3-3-3-3-3--3-|x-x--5-5-5--5--5-5-5/6-6-6-6-3--0--|


Verse 1

 /---------------------------5x-------------------------\

|----------------------|---------------------------------|
|----------------------|---------------------------------|
|----------------------|---------------------------------|
|0--0---0h3-3-3-3-3--3-|x-x--5-5--5--5-5-5/6-6-6-6-3--0--|
|0--0---0h3-3-3-3-3--3-|x-x--5-5--5--5-5-5/6-6-6-6-3--0--|
|0--0---0h3-3-3-3-3--3-|x-x--5-5--5--5-5-5/6-6-6-6-3--0--|

|----------------------|------------------------------|
|----------------------|------------------------------|
|----------------------|------------------------------|
|0--0---0h3-3-3-3-3--3-|x-x--5-5--5--5-5-5/6-6-6-6-3--|
|0--0---0h3-3-3-3-3--3-|x-x--5-5--5--5-5-5/6-6-6-6-3--|
|0--0---0h3-3-3-3-3--3-|x-x--5-5--5--5-5-5/6-6-6-6-3--|



Chorus 1

|-------------------------|-------------------------|
|-------------------------|-------------------------|
|7---7---5--5-5-5-5-5-5-5-|5--2---2/3-3-3-3-3-3-x---|
|7---7---5--5-5-5-5-5-5-5-|5--2---2/3-3-3-3-3-3-x---|
|5---5---3--3-3-3-3-3-3-3-|3--0---0-1-1-1-1-1-1-x---|
|-------------------------|-------------------------|

|------------------------|-----------------------|
|------------------------|-----------------------|
|7---7---5-5-5-5-5-5-5-5-|5--2---2---------------|
|7---7---5-5-5-5-5-5-5-5-|5--2---2---12\---------|
|5---5---3-3-3-3-3-3-3-3-|3--0---0---12\---------|
|------------------------|-----------12\---------|


Interlude

|----------------------|------------------------------|
|----------------------|------------------------------|
|----------------------|------------------------------|
|0--0---0h3-3-3-3-3--3-|3/5-5--5--5-5-5/6-6-6-6-3--0--|
|0--0---0h3-3-3-3-3--3-|3/5-5--5--5-5-5/6-6-6-6-3--0--|
|0--0---0h3-3-3-3-3--3-|3/5-5--5--5-5-5/6-6-6-6-3--0--|


Verse 2

 /---------------------------5x-------------------------\

|----------------------|---------------------------------|
|----------------------|---------------------------------|
|----------------------|---------------------------------|
|0--0---0h3-3-3-3-3--3-|x-x--5-5--5--5-5-5/6-6-6-6-3--0--|
|0--0---0h3-3-3-3-3--3-|x-x--5-5--5--5-5-5/6-6-6-6-3--0--|
|0--0---0h3-3-3-3-3--3-|x-x--5-5--5--5-5-5/6-6-6-6-3--0--|

|----------------------|------------------------------|
|----------------------|------------------------------|
|----------------------|------------------------------|
|0--0---0h3-3-3-3-3--3-|x-x--5-5--5--5-5-5/6-6-6-6-3--|
|0--0---0h3-3-3-3-3--3-|x-x--5-5--5--5-5-5/6-6-6-6-3--|
|0--0---0h3-3-3-3-3--3-|x-x--5-5--5--5-5-5/6-6-6-6-3--|



Chorus 2

|-------------------------|-------------------------|
|-------------------------|-------------------------|
|7---7---5--5-5-5-5-5-5-5-|5--2---2/3-3-3-3-3-3-x---|
|7---7---5--5-5-5-5-5-5-5-|5--2---2/3-3-3-3-3-3-x---|
|5---5---3--3-3-3-3-3-3-3-|3--0---0-1-1-1-1-1-1-x---|
|-------------------------|-------------------------|

|------------------------|------------------------|
|------------------------|------------------------|
|7---7---5-5-5-5-5-5-5-5-|5-5-2-2---2/3-3-3-3-3-3-|
|7---7---5-5-5-5-5-5-5-5-|5-5-2-2---2/3-3-3-3-3-3-|
|5---5---3-3-3-3-3-3-3-3-|3-3-0-0---0-1-1-1-1-1-1-|
|------------------------|------------------------|

|------------------------|------------------------|
|------------------------|------------------------|
|7---7---5-5-5-5-5-5-5-5-|5-5-2-2---2/3-3-3-3-3-3-|
|7---7---5-5-5-5-5-5-5-5-|5-5-2-2---2/3-3-3-3-3-3-|
|5---5---3-3-3-3-3-3-3-3-|3-3-0-0---0-1-1-1-1-1-1-|
|------------------------|------------------------|

|------------------------|-------------------------|-------------0-------|
|------------------------|-------------------------|-------------3-------|
|7---7---5-5-5-5-5-5-5-5-|5-5-2-2---2/3-3-3-3-5----|-------------2-------|
|7---7---5-5-5-5-5-5-5-5-|5-5-2-2---2/3-3-3-3-5--0-|-------------0-------|
|5---5---3-3-3-3-3-3-3-3-|3-3-0-0---0-1-1-1-1-3--0-|-------------0-------|
|------------------------|-----------------------0-|-------------0-------|



Interlude     gtr 1

 /-------16x---------\

|---------------------|
|3-3-3-3---3-3-3-3----|
|2-2-2-2---1-1-1-1----|
|0-0-0-0---0-0-0-0----|
|---------------------|
|---------------------|

on 12th time gtr 2 comes in


gtr 2

 /-------------7x-----------\

|----------------------------|
|----------------------------|
|7--7-7--7-7--7-7--7-7-7-7-7-|
|x--x-x--x-x--x-x--x-x-x-x-x-|
|5--5-5--5-5--5-5--5-5-5-5-5-|
|----------------------------|

|---------------------------------------------------|
|---------------------------------------------------|
|10-10-10-10-10-10-10-10/12-12-12-12-12-12-12-12----|
|-x--x--x--x--x--x--x--x--x--x--x--x--x--x--x--x----|
|-8--8--8--8--8--8--8--8/10-10-10-10-10-10-10-10----|
|---------------------------------------------------|


gtr 1 (Solo)  w/ wah

|-------------------------------------------------------------------------|
|-------------------------------------------------------------------------|
|13^r---x-13^^r--13-13^r----12^^r(12)p10----10--12-10^^r------------------|
|-------x--------------------------------12--------------12-10----10------|
|--------------------------------------------------------------12----12\8-|
|-------------------------------------------------------------------------|

|-------------------------------------------------------------------------|
|-------------------------------------------------------------------------|
|--------------------10^^r------------------------------------------------|
|--------------------------12-10----10----10-12^r(12)p10--12--12--12--12\-|
|8^^r(8)p0-0-0-------------------12----12---------------------------------|
|---------------/12-------------------------------------------------------|
                                                          PH      PH

|--------10----10h12-10----10---------------13-13-13-13----13----13h17----|
|--13^^-----13----------13------13^^r(13)^^----------13^^r----15----------|
|-------------------------------------------------------------------------|
|x----------------------------x-------------------------------------------|
|-----------------------------x-------------------------------------------|
|-------------------------------------------------------------------------|

|13-----13------(13)\---|
|13^^r--13^^r---(13)\---|
|-----------------------|  end of Solo
|-----------------------|
|-----------------------|
|-----------------------|


Verse 3  gtrs 1 & 2  wah off

 /--------------------------2x--------------------------\

|----------------------|---------------------------------|
|----------------------|---------------------------------|
|----------------------|---------------------------------|
|0--0---0h3-3-3-3-3--3-|x-x--5-5--5--5-5-5/6-6-6-6-3--0--|
|0--0---0h3-3-3-3-3--3-|x-x--5-5--5--5-5-5/6-6-6-6-3--0--|
|0--0---0h3-3-3-3-3--3-|x-x--5-5--5--5-5-5/6-6-6-6-3--0--|

|----------------------|------------------------------|
|----------------------|------------------------------|
|----------------------|------------------------------|
|0--0---0h3-3-3-3-3--3-|x-x--5-5--5--5-5-5/6-6-6-6-3--|
|0--0---0h3-3-3-3-3--3-|x-x--5-5--5--5-5-5/6-6-6-6-3--|
|0--0---0h3-3-3-3-3--3-|x-x--5-5--5--5-5-5/6-6-6-6-3--|


Chorus 3

 /---------------------------4x--------------------\

|-------------------------|-------------------------|
|-------------------------|-------------------------|
|7---7---5--5-5-5-5-5-5-5-|5--2---2/3-3-3-3-3-3-x---|
|7---7---5--5-5-5-5-5-5-5-|5--2---2/3-3-3-3-3-3-x---|
|5---5---3--3-3-3-3-3-3-3-|3--0---0-1-1-1-1-1-1-x---|
|-------------------------|-------------------------|

|------------------------|-------------------------|---------------|
|------------------------|-------------------------|---------------|
|7---7---5-5-5-5-5-5-5-5-|5-5-2-2---2/3-3-3-3-5----|---------------|
|7---7---5-5-5-5-5-5-5-5-|5-5-2-2---2/3-3-3-3-5--0-|---------------|
|5---5---3-3-3-3-3-3-3-3-|3-3-0-0---0-1-1-1-1-3--0-|--------(0)----|
|------------------------|-----------------------0-|---------------|
                                                             fdbk.



Tab Legend
-----------

x         muted string
/         slide up
\         slide down
h         hammer on
p         pull off
^         bend half step
^^        bend full step
r         release



4. Time Bomb
-------------

Drop D (D A D G B E)



Intro  (synth. arr. for gtr)

 /--------------6x---------------\

|---------------------------------|
|---------------------------------|
|---------------------------------|
|0-0-0-0-3-0-0-0-0-3-0-0-5-0-6-0--|
|---------------------------------|
|---------------------------------|


Verse 1    gtr 1

|--------------------------|-----------------------------| ---
|--------------------------|-----------------------------|  |
|5/7-7--7--7-7--7--7-8--8--|5/7-7--7--7-7--(7)\----------|  |
|5/7-7--7--7-7--7--7-8--8--|5/7-7--7--7-7--(7)\----------|  |
|3/5-5--5--5-5--5--5-6--6--|3/5-5--5--5-5--(5)\----------|  |
|--------------------------|-----------------------------|  |
                                                            |
 /---------------here gtr 2 does fill 1-----------------\   2x
                                                            |
|--------------------------|-----------------------------|  |
|--------------------------|-----------------------------|  |
|5/7-7--7--7-7--7--7-8--8--|5/7-7--7--7-7--(7)\----------|  |
|5/7-7--7--7-7--7--7-8--8--|5/7-7--7--7-7--(7)\----------|  |
|3/5-5--5--5-5--5--5-6--6--|3/5-5--5--5-5--(5)\----------|  |
|--------------------------|-----------------------------| ---


fill 1   gtr 2

|--------------------------|-----------------------------|
|--------------------------|-----------------------------|
|--------------------------|----------------------3----3-|
|--------------------------|------------------0-0-1--0-1-|
|--------------------------|-----------------------------|
|--------------------------|-----------------------------|


Pre-Chorus 1   gtrs 1 & 2

 /----------3x------------\

|--------------------------|------------------|
|--------------------------|------------------|
|--------------------------|------------------|
|5/7-7--7--x-x-5/7-7-8--5--|5/7-7--7----------|
|5/7-7--7--x-x-5/7-7-8--5--|5/7-7--7----------|
|5/7-7--7--x-x-5/7-7-8--5--|5/7-7--7----------|



Verse 2

|--------------------------|-----------------------------| ---
|--------------------------|-----------------------------|  |
|5/7-7--7--7-7--7--7-8--8--|5/7-7--7--7-7--(7)\----------|  |
|5/7-7--7--7-7--7--7-8--8--|5/7-7--7--7-7--(7)\----------|  |
|3/5-5--5--5-5--5--5-6--6--|3/5-5--5--5-5--(5)\----------|  |
|--------------------------|-----------------------------|  |
                                                            |
 /---------------here gtr 2 does fill 1-----------------\   2x
                                                            |
|--------------------------|-----------------------------|  |
|--------------------------|-----------------------------|  |
|5/7-7--7--7-7--7--7-8--8--|5/7-7--7--7-7--(7)\----------|  |
|5/7-7--7--7-7--7--7-8--8--|5/7-7--7--7-7--(7)\----------|  |
|3/5-5--5--5-5--5--5-6--6--|3/5-5--5--5-5--(5)\----------|  |
|--------------------------|-----------------------------| ---


fill 1   gtr 2

|--------------------------|-----------------------------|
|--------------------------|-----------------------------|
|--------------------------|----------------------3----3-|
|--------------------------|------------------0-0-1--0-1-|
|--------------------------|-----------------------------|
|--------------------------|-----------------------------|



Pre-Chorus 2    gtrs 1 & 2

 /----------3x------------\

|--------------------------|---------------------------|
|--------------------------|---------------------------|
|--------------------------|---------------------------|
|5/7-7--7--x-x-5/7-7-8--5--|5/7-7--7--x-x-5/7-7-8--5\--|
|5/7-7--7--x-x-5/7-7-8--5--|5/7-7--7--x-x-5/7-7-8--5\--|
|5/7-7--7--x-x-5/7-7-8--5--|5/7-7--7--x-x-5/7-7-8--5\--|



Chorus 1    synth. arr. for gtr

|---------------------------------|---------------------------------|
|---------------------------------|---------------------------------|
|---------------------------------|---------------------------------|
|0-0-0-0-3-0-0-0-0-3-0-0-5-0-6-0--|0-0-0-0-3-0-0-0-0-0-0-0-0-0-0-0--|
|---------------------------------|---------------------------------|
|---------------------------------|---------------------------------|

 /----------------2x-------------\

|---------------------------------|
|---------------------------------|
|---------------------------------|
|0-0-0-0-3-0-0-0-0-3-0-0-5-0-6-0--|
|---------------------------------|
|---------------------------------|


Interlude

|--------------------------|-----------------------------|
|--------------------------|-----------------------------|
|5/7-7--7--7-7--7--7-8--8--|5/7-7--7--7-7--(7)\----------|
|5/7-7--7--7-7--7--7-8--8--|5/7-7--7--7-7--(7)\----------|
|3/5-5--5--5-5--5--5-6--6--|3/5-5--5--5-5--(5)\----------|
|--------------------------|-----------------------------|

|--------------------------|-----------------------------|
|--------------------------|-----------------------------|
|5/7-7--7--7-7--7--7-8--8--|5/7-7--7--7-7--(7)\----------|
|5/7-7--7--7-7--7--7-8--8--|5/7-7--7--7-7--(7)\----------|
|3/5-5--5--5-5--5--5-6--6--|3/5-5--5--5-5--(5)\----------|
|--------------------------|-----------------------------|



Verse 3

|--------------------------|-----------------------------| ---
|--------------------------|-----------------------------|  |
|5/7-7--7--7-7--7--7-8--8--|5/7-7--7--7-7--(7)\----------|  |
|5/7-7--7--7-7--7--7-8--8--|5/7-7--7--7-7--(7)\----------|  |
|3/5-5--5--5-5--5--5-6--6--|3/5-5--5--5-5--(5)\----------|  |
|--------------------------|-----------------------------|  |
                                                            |
 /---------------here gtr 2 does fill 1-----------------\   2x
                                                            |
|--------------------------|-----------------------------|  |
|--------------------------|-----------------------------|  |
|5/7-7--7--7-7--7--7-8--8--|5/7-7--7--7-7--(7)\----------|  |
|5/7-7--7--7-7--7--7-8--8--|5/7-7--7--7-7--(7)\----------|  |
|3/5-5--5--5-5--5--5-6--6--|3/5-5--5--5-5--(5)\----------|  |
|--------------------------|-----------------------------| ---


fill 1   gtr 2

|--------------------------|-----------------------------|
|--------------------------|-----------------------------|
|--------------------------|----------------------3----3-|
|--------------------------|------------------0-0-1--0-1-|
|--------------------------|-----------------------------|
|--------------------------|-----------------------------|



Pre-Chorus 3

 /----------3x------------\

|--------------------------|---------------------------|
|--------------------------|---------------------------|
|--------------------------|---------------------------|
|5/7-7--7--x-x-5/7-7-8--5--|5/7-7--7--x-x-5/7-7-8--5\--|
|5/7-7--7--x-x-5/7-7-8--5--|5/7-7--7--x-x-5/7-7-8--5\--|
|5/7-7--7--x-x-5/7-7-8--5--|5/7-7--7--x-x-5/7-7-8--5\--|



Chorus 2    synth. arr. for gtr

 /--------------8x---------------\

|---------------------------------|
|---------------------------------|
|---------------------------------|
|0-0-0-0-3-0-0-0-0-3-0-0-5-0-6-0--|
|---------------------------------|
|---------------------------------|


Bridge    gtrs 1 & 2

 /--------------4x--------------\

|--------------------------------|------------------|
|--------------------------------|------------------|
|5/7-7-7-5/7-7-7-5/7-7-10--5-5-5-|3---3----2---5----|
|5/7-7-7-5/7-7-7-5/7-7-10--5-5-5-|3---3----2---5----|
|3/5-5-5-3/5-5-5-3/5-5--8--3-3-3-|1---1----0---3----|
|--------------------------------|-------3----------|

 /--------------4x--------------\

|--------------------------------|------------------|
|--------------------------------|------------------|
|5/7-7-7-5/7-7-7-5/7-7-10--5-5-5-|3---3----2---5----|
|5/7-7-7-5/7-7-7-5/7-7-10--5-5-5-|3---3----2---5----|
|3/5-5-5-3/5-5-5-3/5-5--8--3-3-3-|1---1----0---3----|
|--------------------------------|-------3----------|



Chorus 3    synth. arr. for gtr

 /--------------4x---------------\

|---------------------------------|
|---------------------------------|
|---------------------------------|
|0-0-0-0-3-0-0-0-0-3-0-0-5-0-6-0--|
|---------------------------------|
|---------------------------------|



Outro   gtrs 1 & 2

 /--------------4x--------------\

|--------------------------------|
|--------------------------------|
|5/7-7-7-5/7-7-7-5/7-7-10--5-5-5-|
|5/7-7-7-5/7-7-7-5/7-7-10--5-5-5-|
|3/5-5-5-3/5-5-5-3/5-5--8--3-3-3-|
|--------------------------------|

 /-----------------------------------4x---------------------------\

|--------------------------------|---------------------------------|
|--------------------------------|---------------------------------|
|5-7-7-5-7-7-5-7-7-5-7-7-5-7-7-5-|7-7-5-7-7-5-7-7-5-7-7-5-7-5-5-5--|
|5-7-7-5-7-7-5-7-7-5-7-7-5-7-7-5-|7-7-5-7-7-5-7-7-5-7-7-5-7-5-5-5--|
|3-5-5-3-5-5-3-5-5-3-5-5-3-5-5-3-|5-5-3-5-5-3-5-5-3-5-5-3-5-3-3-3--|
|--------------------------------|---------------------------------|

 /--------------4x-------------\

|-------------------------------|---------------------------------|
|-------------------------------|---------------------------------|
|5-7-7-5-7-7-5-7-7-5-7-7-5-7-7--|5-7-7-5-7-7-5-7-7-5-7-7-5-7-7-7--|
|5-7-7-5-7-7-5-7-7-5-7-7-5-7-7--|5-7-7-5-7-7-5-7-7-5-7-7-5-7-7-7--|
|3-5-5-3-5-5-3-5-5-3-5-5-3-5-5--|3-5-5-3-5-5-3-5-5-3-5-5-3-5-5-5--|
|-------------------------------|---------------------------------|



Tab Legend
-----------

/        slide up
\        slide down
x        muted string
()       note is ringing



5. Bad Religion
-----------------

Drop D (D A D G B E)



Intro      gtrs 1 & 2

                     /--------------------2x-----------------------\

|-------------------|-------------|----------|-------------|--------|
|-------------------|-------------|----------|-------------|--------|
|-------------------|-------------|----------|-------------|--------|
|0--0--0-0--0--0-0--|0--0--0-0--0-|0--0-0--0-|0--0-0--0--0-|0-0-----|
|0--0--0-0--0--0-0--|0--0--0-0--0-|0--0-0--0-|0--0-0--0--0-|0-0-----|
|0--0--0-0--0--0-0--|0--0--0-0--0-|0--0-0--0-|0--0-0--0--0-|0-0-----|


Verse 1
 
 /-----------------------3x-------------------\

|-------------|----------|-------------|-------|
|-------------|----------|-------------|-------|
|-------------|----------|-------------|-------|
|0--0--0-0--0-|0--0-0--0-|0--0-0--0--0-|0-0----|
|0--0--0-0--0-|0--0-0--0-|0--0-0--0--0-|0-0----|
|0--0--0-0--0-|0--0-0--0-|0--0-0--0--0-|0-0----|

|-------------|----------|-------------|
|-------------|----------|-------------|
|-------------|----------|-------------|
|0--0--0-0--0-|0--0-0--0-|0--0-0--0--0-|
|0--0--0-0--0-|0--0-0--0-|0--0-0--0--0-|
|0--0--0-0--0-|0--0-0--0-|0--0-0--0--0-|



Chorus 1

|--------------|----------------|--------------|-----------------|
|--------------|----------------|--------------|-----------------|
|7\5-5-5-5-5-5-|5-5-5-5-5-5-5-5-|5/7-7-7-7-7-7-|7-7-7-7-7-7-7-7--|
|x-x-x-x-x-x-x-|x-x-x-x-x-x-x-x-|x-x-x-x-x-x-x-|x-x-x-x-x-x-x-x--|
|5\3-3-3-3-3-3-|3-3-3-3-3-3-3-3-|3/5-5-5-5-5-5-|5-5-5-5-5-5-5-5--|
|--------------|----------------|--------------|-----------------|

|--------------|----------------|------------------|----------|
|--------------|----------------|------------------|----------|
|7\5-5-5-5-5-5-|5-5-5-5-5-5-5-5-|------------------|----------|
|x-x-x-x-x-x-x-|x-x-x-x-x-x-x-x-|0--0-0-0--0--0--0-|0--0------|
|5\3-3-3-3-3-3-|3-3-3-3-3-3-3-3-|0--0-0-0--0--0--0-|0--0------|
|--------------|----------------|0--0-0-0--0--0--0-|0--0------|


Interlude

|-------------|----------|-------------|
|-------------|----------|-------------|
|-------------|----------|-------------|
|0--0--0-0--0-|0--0-0--0-|0--0-0--0--0-|
|0--0--0-0--0-|0--0-0--0-|0--0-0--0--0-|
|0--0--0-0--0-|0--0-0--0-|0--0-0--0--0-|


Verse 2

 /-----------------------3x-------------------\

|-------------|----------|-------------|-------|
|-------------|----------|-------------|-------|
|-------------|----------|-------------|-------|
|0--0--0-0--0-|0--0-0--0-|0--0-0--0--0-|0-0----|
|0--0--0-0--0-|0--0-0--0-|0--0-0--0--0-|0-0----|
|0--0--0-0--0-|0--0-0--0-|0--0-0--0--0-|0-0----|

|-------------|----------|-------------|
|-------------|----------|-------------|
|-------------|----------|-------------|
|0--0--0-0--0-|0--0-0--0-|0--0-0--0--0-|
|0--0--0-0--0-|0--0-0--0-|0--0-0--0--0-|
|0--0--0-0--0-|0--0-0--0-|0--0-0--0--0-|


Chorus 2

 /---------------------------------3x---------------------------\

|--------------|----------------|--------------|-----------------|
|--------------|----------------|--------------|-----------------|
|7\5-5-5-5-5-5-|5-5-5-5-5-5-5-5-|5/7-7-7-7-7-7-|7-7-7-7-7-7-7-7--|
|x-x-x-x-x-x-x-|x-x-x-x-x-x-x-x-|x-x-x-x-x-x-x-|x-x-x-x-x-x-x-x--|
|5\3-3-3-3-3-3-|3-3-3-3-3-3-3-3-|3/5-5-5-5-5-5-|5-5-5-5-5-5-5-5--|
|--------------|----------------|--------------|-----------------|


|--------------|----------------|-------------|-----------------|---------|
|--------------|----------------|-------------|-----------------|---------|
|7\5-5-5-5-5-5-|5-5-5-5---------|-------------|-----------------|---------|
|x-x-x-x-x-x-x-|x-x-x-x---------|-------------|-----------------|---------|
|5\3-3-3-3-3-3-|3-3-3-3--11\----|7--8\7--7-7--|7--7--8\7--7--7--|--7---5--|
|--------------|----------------|7--8\7--7-7--|7--7--8\7--7--7--|--7---5--|

             gtr 1 (gradually fades in)

|----------|----------------|--------------|-------------|---------------|
|----------|----------------|--------------|-------------|---------------|
|----------|----------------|--------------|-------------|---------------|
|----------|----------------|--------------|-------------|---------------|
|3---2---0-|-/5-----------3-|--------------|2----------1-|---------------|
|3---2---0-|-----0--0--0----|0--0--2-0-2h3-|---0--0--0---|0--0--2-0-2h3--|


Interlude


gtrs 1 & 2

 /------------------------------2x---------------------------\

|----------------|--------------|-------------|---------------|
|----------------|--------------|-------------|---------------|
|----------------|--------------|-------------|---------------|
|----------------|--------------|-------------|---------------|
|-/5-----------3-|--------------|2----------1-|---------------|
|-----0--0--0----|0--0--2-0-2h3-|---0--0--0---|0--0--2-0-2h3--|


|----------------|--------------|-------------|---------------|
|----------------|--------------|-------------|---------------|
|----------------|--------------|-------------|---------------|
|----------------|--------------|-------------|---------------|
|-/5-----------3-|--------------|2----------3-|---------------|
|-----0--0--0----|0--0--2-0-2h3-|---0--0--0---|0--0--2-0-2h3--|

 /------------------------------3x---------------------------\

|----------------|--------------|-------------|---------------|
|----------------|--------------|-------------|---------------|
|----------------|--------------|-------------|---------------|
|----------------|--------------|-------------|---------------|
|-/5-----------3-|--------------|2----------1-|---------------|
|-----0--0--0----|0--0--2-0-2h3-|---0--0--0---|0--0--2-0-2h3--|

|----------------|--------------|-------------|---------------|
|----------------|--------------|-------------|---------------|
|----------------|--------------|-------------|---------------|
|----------------|--------------|-------------|---------------|
|-/5-----------3-|--------------|2----------3-|---------------|
|-----0--0--0----|0--0--2-0-2h3-|---0--0--0---|0--0--2-0-2h3--|


Outro

|-------------|----------|-------------|-------|
|-------------|----------|-------------|-------|
|-------------|----------|-------------|-------|
|0--0--0-0--0-|0--0-0--0-|0--0-0--0--0-|0-0----|
|0--0--0-0--0-|0--0-0--0-|0--0-0--0--0-|0-0----|
|0--0--0-0--0-|0--0-0--0-|0--0-0--0--0-|0-0----|


 /-----------------------------2x---------------------------\

|-------------|----------|-------------|---------------------|
|-------------|----------|-------------|---------------------|
|-------------|----------|-------------|---------------------|
|0--0--0-0--0-|0--0-0--0-|0--0-0--0--0-|---------------------|
|0--0--0-0--0-|0--0-0--0-|0--0-0--0--0-|2--2--2--3--2--3--0--|
|0--0--0-0--0-|0--0-0--0-|0--0-0--0--0-|2--2--2--3--2--3--0--|
                                        PM--------------|

 /------------------------2x------------------\

|-------------|----------|-------------|-------|
|-------------|----------|-------------|-------|
|-------------|----------|-------------|-------|
|0--0--0-0--0-|0--0-0--0-|0--0-0--0--0-|0-0----|
|0--0--0-0--0-|0--0-0--0-|0--0-0--0--0-|0-0----|
|0--0--0-0--0-|0--0-0--0-|0--0-0--0--0-|0-0----|




Tab Legend
-----------

PM         palm mute
h          hammer on
/          slide up
\          slide down
x          muted string



6. Immune
----------

Drop D (D A D G B E)


Intro    gtr 1

 /---------------2x-----------\

|------------------------------|
|------------------------------|
|------------------------------|
|0-----------------------------|
|0-----------------------------|
|0-----------------------------|


gtr 2

|----------------|-----------|----------------|----------------|
|----------------|-----------|----------------|----------------|
|----------------|-----------|----------------|----------------|
|----------------|-----------|----------------|----------------|
|5----------(5)--|(5)\3------|-(3)-----(3)/7--|7\5-------(5)\--|
|----------------|-----------|----------------|----------------|
 vol. swell  fdbk.              fdbk.


|----------------|-----------|----------------|----------------|
|----------------|-----------|----------------|----------------|
|----------------|-----------|----------------|----------------|
|----------------|-----------|----------------|----------------|
|x---5------(5)--|(5)\3------|-(3)-----(3)/7--|7\5-------(5)\--|
|----------------|-----------|----------------|----------------|
 fdbk.       fdbk.              fdbk.



Verse 1     gtr 1  w/ wah

|--------------------------|------------------------------------|
|--------------------------|------------------------------------|
|----7----7--------5-------|------------7-----7----x---5--------|
|-7----7-----x-x-x----5--7-|x-x-x-x--7-----7-----x---x----5--7--|
|--------------------------|------------------------------------|
|--------------------------|------------------------------------|
  NH-------|                         NH--------|

|------------------------------------|------------------------------------|
|------------------------------------|------------------------------------|
|------------7-----7--------5--------|------------7-----7--------5--------|
|x-x-x-x--7-----7----x-x-x-----5--7--|x-x-x-7--7-----7----x-x-x-----5--7--|
|------------------------------------|------------------------------------|
|------------------------------------|------------------------------------|
          NH--------|                       NH-----------|

|------------------------------------|------------------------------------|
|------------------------------------|------------------------------------|
|------------7-----7--------5--------|------------7-----7--------5--------|
|x-x-x-7--7-----7----x-x-x-----5--7--|x-x-x-7--7-----7----x-x-x-----5--7--|
|------------------------------------|------------------------------------|
|------------------------------------|------------------------------------|
       NH-----------|                       NH-----------|

|------------------------------------|----------------------|
|------------------------------------|----------------------|
|------------7-----7--------5--------|------------0---------|
|x-x-x-7--7-----7----x-x-x-----5--7--|x-x-x-7--7--0---------|
|------------------------------------|----------------------|
|------------------------------------|----------------------|
       NH-----------|                       NH--|


Chorus 1    gtrs 1 & 2  wah off

 /----------------4x----------\

|------------------------------|
|------------------------------|
|------------------------------|
|------------------------------|
|0--0-0-2--0-2--0-2/3-3-3-3-3--|
|0--0-0-2--0-2--0-2/3-3-3-3-3--|


Interlude    gtr 1

|------------------------------|
|------------------------------|
|------------------------------|
|0-----------------------------|
|0-----------------------------|
|0-----------------------------|


gtr 2

|----------------|-----------|----------------|----------------|
|----------------|-----------|----------------|----------------|
|----------------|-----------|----------------|----------------|
|----------------|-----------|----------------|----------------|
|5----------(5)--|(5)\3------|-(3)-----(3)/7--|7\5-------(5)\--|
|----------------|-----------|----------------|----------------|
 vol. swell  fdbk.              fdbk.


Verse 2    gtr 1   w/ wah

|--------------------------|------------------------------------|
|--------------------------|------------------------------------|
|----7----7--------5-------|------------7-----7----x---5--------|
|-7----7-----x-x-x----5--7-|x-x-x-x--7-----7-----x---x----5--7--|
|--------------------------|------------------------------------|
|--------------------------|------------------------------------|
  NH-------|                         NH--------|

|------------------------------------|------------------------------------|
|------------------------------------|------------------------------------|
|------------7-----7--------5--------|------------7-----7--------5--------|
|x-x-x-x--7-----7----x-x-x-----5--7--|x-x-x-7--7-----7----x-x-x-----5--7--|
|------------------------------------|------------------------------------|
|------------------------------------|------------------------------------|
          NH--------|                       NH-----------|

|------------------------------------|------------------------------------|
|------------------------------------|------------------------------------|
|------------7-----7--------5--------|------------7-----7--------5--------|
|x-x-x-7--7-----7----x-x-x-----5--7--|x-x-x-7--7-----7----x-x-x-----5--7--|
|------------------------------------|------------------------------------|
|------------------------------------|------------------------------------|
       NH-----------|                       NH-----------|

|------------------------------------|----------------------|
|------------------------------------|----------------------|
|------------7-----7--------5--------|------------0---------|
|x-x-x-7--7-----7----x-x-x-----5--7--|x-x-x-7--7--0---------|
|------------------------------------|----------------------|
|------------------------------------|----------------------|
       NH-----------|                       NH--|


Chorus 2   gtrs 1 & 2  wah off

 /----------------8x----------\

|------------------------------|
|------------------------------|
|------------------------------|
|------------------------------|
|0--0-0-2--0-2--0-2/3-3-3-3-3--|
|0--0-0-2--0-2--0-2/3-3-3-3-3--|


Bridge

|----------------------------|----------------------------|
|----------------------------|----------------------------|
|----------------------------|----------------------------|
|----------------------------|----------------------------|
|0--0-0--0-0--0-0--0-0h2-2-2-|0--0-0--0-0--0-0--0-0h3-3-3-|
|0--0-0--0-0--0-0--0-0h2-2-2-|0--0-0--0-0--0-0--0-0h3-3-3-|

|----------------------------|----------------------------|
|----------------------------|----------------------------|
|----------------------------|----------------------------|
|----------------------------|----------------------------|
|0--0-0--0-0--0-0--0-0h2-2-2-|0--0-0--0-0--0-0--0-0h2-2/3-|
|0--0-0--0-0--0-0--0-0h2-2-2-|0--0-0--0-0--0-0--0-0h2-2/3-|


Interlude

|-----------------|-------------------|-------------------------------|
|-----------------|-------------------|-------------------------------|
|5/7--------7/9---|9/10--------10/12--|9--------5---------(5)/7-------|
|x----------x-----|x-x----------x-----|x--------x---------------------|
|3/5--------5/7---|7/8----------8/10--|7--------3---------(3)/5-------|
|-----------------|-------------------|-------------------------------|

|-----------------|-------------------|-------------------------------|
|-----------------|-------------------|-------------------------------|
|5/7--------7/9---|9/10--------10/12--|9--------5---------(5)/7-------|
|x----------x-----|x-x----------x-----|x--------x---------------------|
|3/5--------5/7---|7/8----------8/10--|7--------3---------(3)/5-------|
|------0-0--------|--------0-0--------|-----0-0-----------------------|


Verse 3    gtr 1  w/ wah

|--------------------------|------------------------------------|
|--------------------------|------------------------------------|
|----7----7--------5-------|------------7-----7----x---5--------|
|-7----7-----x-x-x----5--7-|x-x-x-x--7-----7-----x---x----5--7--|
|--------------------------|------------------------------------|
|--------------------------|------------------------------------|
  NH-------|                         NH--------|

|------------------------------------|------------------------------------|
|------------------------------------|------------------------------------|
|------------7-----7--------5--------|------------7-----7--------5--------|
|x-x-x-x--7-----7----x-x-x-----5--7--|x-x-x-7--7-----7----x-x-x-----5--7--|
|------------------------------------|------------------------------------|
|------------------------------------|------------------------------------|
          NH--------|                       NH-----------|

|------------------------------------|------------------------------------|
|------------------------------------|------------------------------------|
|------------7-----7--------5--------|------------7-----7--------5--------|
|x-x-x-7--7-----7----x-x-x-----5--7--|x-x-x-7--7-----7----x-x-x-----5--7--|
|------------------------------------|------------------------------------|
|------------------------------------|------------------------------------|
       NH-----------|                       NH-----------|

|------------------------------------|----------------------|
|------------------------------------|----------------------|
|------------7-----7--------5--------|------------0---------|
|x-x-x-7--7-----7----x-x-x-----5--7--|x-x-x-7--7--0---------|
|------------------------------------|----------------------|
|------------------------------------|----------------------|
       NH-----------|                       NH--|


Chorus 3    gtrs 1 & 2  wah off

 /----------------8x----------\

|------------------------------|
|------------------------------|
|------------------------------|
|------------------------------|
|0--0-0-2--0-2--0-2/3-3-3-3-3--|
|0--0-0-2--0-2--0-2/3-3-3-3-3--|


Bridge     gtr 1

|----------------------------------------|
|----------------------------------------|
|----------------------------------------|
|0---------------------------------------|
|0---------------------------------------|
|0---------------------------------------|


gtr 2

|----------------------------------------|
|----------------------------------------|
|----------------------7-----------------|
|0---------------------------------------|
|0---------------------------------------|
|0---------------------------------------|
                       vol. swell


gtrs 1 & 2

|----------------------------|----------------------------| ---
|----------------------------|----------------------------|  |
|----------------------------|----------------------------|  |
|----------------------------|----------------------------|  |
|0--0-0--0-0--0-0--0-0h2-2-2-|0--0-0--0-0--0-0--0-0h3-3-3-|  |
|0--0-0--0-0--0-0--0-0h2-2-2-|0--0-0--0-0--0-0--0-0h3-3-3-|  |
                                                             2x
|----------------------------|----------------------------|  |
|----------------------------|----------------------------|  |
|----------------------------|----------------------------|  |
|----------------------------|----------------------------|  |
|0--0-0--0-0--0-0--0-0h2-2-2-|0--0-0--0-0--0-0--0-0h2-2/3-|  |
|0--0-0--0-0--0-0--0-0h2-2-2-|0--0-0--0-0--0-0--0-0h2-2/3-| ---


Interlude


gtr 1  (Rythm)

|----------------------------|----------------------------| ---
|----------------------------|----------------------------|  |
|----------------------------|----------------------------|  |
|----------------------------|----------------------------|  |
|0--0-0--0-0--0-0--0-0h2-2-2-|0--0-0--0-0--0-0--0-0h3-3-3-|  |
|0--0-0--0-0--0-0--0-0h2-2-2-|0--0-0--0-0--0-0--0-0h3-3-3-|  |
                                                             2x
|----------------------------|----------------------------|  |
|----------------------------|----------------------------|  |
|----------------------------|----------------------------|  |
|----------------------------|----------------------------|  |
|0--0-0--0-0--0-0--0-0h2-2-2-|0--0-0--0-0--0-0--0-0h2-2/3-|  |
|0--0-0--0-0--0-0--0-0h2-2-2-|0--0-0--0-0--0-0--0-0h2-2/3-| ---



gtr 2 (Solo)   w/ wah

|--------------------------------------------------------------------------|
|---13----13----13-13-13-13--13\--/13--13-13-13-13-13----13-14-13-13-13-13-|
|12----12-------12-12-12-12--12\--/12--12-12-12-12-12-12-12-12-12-12-12-12-|
|--------------------------------------------------------------------------|
|--------------------------------------------------------------------------|
|--------------------------------------------------------------------------|

|--------------------------------------------------------------------------|
|13------------------------------------------------------------------------|
|12--------------10-10-10------------------------10-10-10------------10----|
|-----12\-----------------12---10-10-12-12---0-0----------12---9h10--------|
|----------9h10------------------------------------------------------------|
|--------------------------------------------------------------------------|
                                                          PH         PH

pitch: C


|--------------------------------------------------------------------------|
|--------------------------------------------------------------------------|
|------13---13-13-13-13\--/13-13-13-13-13-13-13-13-13-13-13-13-13--------x-|
|x--x--12---12-12-12-12\--/12-12-12-12-12-12-12-12-12-12-12-12-12---12\--x-|
|x--x----------------------------------------------------------------------|
|--------------------------------------------------------------------------|

|------------------------------------------------|
|----13^^r(13)^^----13^^----13^^^^---(13)\-------|
|x--------------------------13^------(13)\-------|   end of Solo 1
|x-----------------------------------------------|
|------------------------------------------------|
|------------------------------------------------|



Outro       gtrs 1 & 2   wah off

|----------------------------|----------------------------|
|----------------------------|----------------------------|
|----------------------------|----------------------------|
|----------------------------|----------------------------|
|0--0-0--0-0--0-0--0-0h2-2-2-|0--0-0--0-0--0-0--0-0h3-3-3-|
|0--0-0--0-0--0-0--0-0h2-2-2-|0--0-0--0-0--0-0--0-0h3-3-3-|

|----------------------------|----------------------------|
|----------------------------|----------------------------|
|----------------------------|----------------------------|
|----------------------------|----------------------------|
|0--0-0--0-0--0-0--0-0h2-2-2-|0--0-0--0-0--0-0--0-0h2-2/3-|
|0--0-0--0-0--0-0--0-0h2-2-2-|0--0-0--0-0--0-0--0-0h2-2/3-|


gtr 1 (Rythm)

|----------------------------|----------------------------|
|----------------------------|----------------------------|
|----------------------------|----------------------------|
|----------------------------|----------------------------|
|0--0-0--0-0--0-0--0-0h2-2-2-|0--0-0--0-0--0-0--0-0h3-3-3-|
|0--0-0--0-0--0-0--0-0h2-2-2-|0--0-0--0-0--0-0--0-0h3-3-3-|

|----------------------------|----------------------------|------------|
|----------------------------|----------------------------|------------|
|----------------------------|----------------------------|--1---------|
|----------------------------|----------------------------|--0---------|
|0--0-0--0-0--0-0--0-0h2-2-2-|0--0-0--0-0--0-0--0-0h2-2/3-|------------|
|0--0-0--0-0--0-0--0-0h2-2-2-|0--0-0--0-0--0-0--0-0h2-2/3-|------------|


gtr 2 (Solo)   w/ wah

|--------------------------------------------------------------10-------10-|
|-----------------------------------------------------------------13p10----|
|12^^---10----x--10--------------------------------------12^^--------------|
|-------------x------12-10h12p10----------------------x--------------------|
|--------------------------------12-10-12-11-10\8^^r--x--------------------|
|--------------------------------------------------------------------------|

|--------------------------------------10h13p10-13-13-13-13-13/16-16-16-16-|
|13p10------------------------------------------12-12-12-12-12/15-15-15-15-|
|------13-/13-13-13-13-13-13-13--12^^--------------------------------------|
|---------/12-12-12-12-12-12-12--------------------------------------------|
|--------------------------------------------------------------------------|
|--------------------------------------------------------------------------|

|16/19-19-19-19-19-19-19\------------------------------------|
|15/18-18-18-18-18-18-18\------------------------------------|
|------------------------------1-----(1)---------------------|  end of
|------------------------------0-----(0)---------------------|  Solo 2
|------------------------------------------------------------|
|------------------------------------------------------------|
                                      fdbk.



Tab Legend
-----------

(n)         note is still ringing
fdbk.       feedback
/           slide up
\           slide down
NH          natrual harmonic
PH          pinch harmonic
x           muted string
h           hammer on
p           pull off
^           bend half step
^^          bend one full step
^^^^        bend two full steps
r           release



7. Someone In London
----------------------

Drop D (D A D G B E)


Intro   gtr 1

|-----------------------|------------------------| ---
|-----------------------|------------------------|  |
|-----------------5-----|------------------------|  |
|------6^r-----------7--|------6^r------0-----0--|  |
|---5-------8--5--------|---5--------------------|  |
|0----------------------|0-----------3-----2-----|  4x
                                                    |
|-----------------------|------------------------|  |
|-----------------------|------------------------|  |
|-----------------5-----|------------------------|  |
|------6^r-----------7--|------0--------0-----0--|  |
|---5-------8--5--------|---3--------2-----------|  |
|0----------------------|3--------2--------1-----| ---

|-----------------------|------------------------|
|-----------------------|------------------------|
|-----------------5-----|------------------------|
|------6^r-----------7--|------6^r------0-----0--|
|---5-------8--5--------|---5--------------------|
|0----------------------|0-----------3-----2-----|

|-----------------------|------------------------|
|-----------------------|------------------------|
|-----------------5-----|------------------------|
|------6^r-----------7--|------0--------0-----0--|
|---5-------------------|---3--------2-----------|
|0----------------------|3--------2--------1-----|

|-----------------------|------------------------|
|-----------------------|------------------------|
|-----------------5-----|------------------------|
|------6^r-----------7--|------6^r------0-----0--|
|---5-------8--5--------|---5--------------------|
|0----------------------|0-----------3-----2-----|

                         /-----------3x---------\

|-----------------------|------------------------|------------|
|-----------------------|------------------------|------------|
|-----------------5-----|------------------------|------------|
|------6^r-----------7--|------0--------0-----0--|0-----------|
|---5-------8--5--------|---3--------2-----------|0-----------|
|0----------------------|3--------2--------1-----|0-----------|



Tab Legend
------------

^      bend half step
r      release



8. Get Up, Get Out!
--------------------

Drop D (D A D G B E)


Intro     gtr 3 (sustained chord from Someone In London)

|----------------|
|----------------|
|----------------|
|(0)-------------|
|(0)-------------|
|(0)-------------|


gtrs 1 & 2

 /------------------------------2x------------------------------\ 

|-------------------------------|--------------------------------|
|-------------------------------|--------------------------------|
|-------------------------------|--------------------------------|
|-------------------------------|--------------------------------|
|-------3h5-5----------3h5-5-5--|-------3h5-5-----------3h5-5-5--|
|0--0h5-------0--0-5p0----------|0--0h5-------0-5p0-5p0----------|

|-------------------------------|--------------------------------|
|-------------------------------|--------------------------------|
|-------------------------------|--------------------------------|
|-------------------------------|--------------------------------|
|-------3h5-5----------3h5-5-5--|-------3h5-5-----------3h5-5p0--|
|0--0h5-------0--0-5p0----------|0--0h5-------0-5p0-5p0----------|

|--------------------|
|--------------------|
|---------7----------|
|--5-6-6--6----------|
|5---5-5--5---5p0----|
|--------------------|
     TP-|


Verse 1     w/ wah

|---------------|------------------------------------|
|---------------|------------------------------------|
|---------7\----|-/7\--------------------------------|
|---------x-----|--x---------------------------------|
|3--5-----5\----|-/5\--5p0---------------------------|
|---------------|-----------3-3-3-3-3-3-3-3-3-3-3-3--|
                            NH---------------------|

|------------------|--------------------------------|
|------------------|--------------------------------|
|------------------|--------------------------------|
|------------------|--------------------------------|
|3--5-----/5-6-6-5-|--5p0---------------------------|
|------------------|-------3-3-3-3-3-3-3-3-3-3-3-3--|
                           NH---------------------|

|------------------|--------------------------------|
|------------------|--------------------------------|
|------------------|--------------------------------|
|------------------|--------------------------------|
|3--5-----5\-------|--/5p0--------------------------|
|------------------|-------3-3-3-3-3-3-3-3-3-3-3-3--|
                           NH---------------------|
                 wah off

|---------------|-------------------------|
|---------------|-------------------------|
|---------7\----|-------------------------|
|---------x-----|3---2---/5---3---2--3----|
|3--5-----5\----|3---2---/5---3---2--3----|
|---------------|3---2---/5---3---2--3----|


Pre-Chorus 1

|--------------------------------|-------------------------------|
|--------------------------------|-------------------------------|
|--------------------------------|-------------------------------|
|5--5-5-5-6-6-6-5--5-5-5-5/6-6-6-|5--5-5-5/6-6-5--5-5-5-5/6-6-6--|
|5--5-5-5-6-6-6-5--5-5-5-5/6-6-6-|5--5-5-5/6-6-5--5-5-5-5/6-6-6--|
|5--5-5-5-6-6-6-5--5-5-5-5/6-6-6-|5--5-5-5/6-6-5--5-5-5-5/6-6-6--|


Chorus 1

|----------------------------|----------------------------|
|----------------------------|----------------------------|
|------5/7-7---------5/7-7-7-|------5/7-7-----------------|
|------5/7-7---------5/7-7-7-|------5/7-7-3--3--3-1-1-1---|
|------3/5-5---------3/5-5-5-|------3/5-5-3--3--3-1-1-1---|
|0--0--------0--0--0---------|0--0--------3--3--3-1-1-1---|

|----------------------------|--------------------------|
|----------------------------|--------------------------|
|------5/7-7---------5/7-7-7-|------5/7-7---------------|
|------5/7-7---------5/7-7-7-|------5/7-7-3-------------|
|------3/5-5---------3/5-5-5-|------3/5-5-3-------------|
|0--0--------0--0--0---------|0--0--------3-------------|


Verse 2  w/ wah

|---------------|------------------------------------|
|---------------|------------------------------------|
|---------7\----|-/7\--------------------------------|
|---------x-----|--x---------------------------------|
|3--5-----5\----|-/5\--5p0---------------------------|
|---------------|-----------3-3-3-3-3-3-3-3-3-3-3-3--|
                            NH---------------------|

|------------------|--------------------------------|
|------------------|--------------------------------|
|------------------|--------------------------------|
|------------------|--------------------------------|
|3--5-----/5-6-6-5-|--5p0---------------------------|
|------------------|-------3-3-3-3-3-3-3-3-3-3-3-3--|
                           NH---------------------|

|------------------|--------------------------------|
|------------------|--------------------------------|
|------------------|--------------------------------|
|------------------|--------------------------------|
|3--5-----5\-------|--/5p0--------------------------|
|------------------|-------3-3-3-3-3-3-3-3-3-3-3-3--|
                           NH---------------------|
                 wah off

|---------------|-------------------------|
|---------------|-------------------------|
|---------7\----|-------------------------|
|---------x-----|3---2---/5---3---2--3----|
|3--5-----5\----|3---2---/5---3---2--3----|
|---------------|3---2---/5---3---2--3----|


Pre-Chorus 2

 /-------------------------------2x-----------------------------\

|--------------------------------|-------------------------------|
|--------------------------------|-------------------------------|
|--------------------------------|-------------------------------|
|5--5-5-5-6-6-6-5--5-5-5-5/6-6-6-|5--5-5-5/6-6-5--5-5-5-5/6-6-6--|
|5--5-5-5-6-6-6-5--5-5-5-5/6-6-6-|5--5-5-5/6-6-5--5-5-5-5/6-6-6--|
|5--5-5-5-6-6-6-5--5-5-5-5/6-6-6-|5--5-5-5/6-6-5--5-5-5-5/6-6-6--|


Chorus 2

 /-----------------------------3x------------------------\

|----------------------------|----------------------------|
|----------------------------|----------------------------|
|------5/7-7---------5/7-7-7-|------5/7-7-----------------|
|------5/7-7---------5/7-7-7-|------5/7-7-3--3--3-1-1-1---|
|------3/5-5---------3/5-5-5-|------3/5-5-3--3--3-1-1-1---|
|0--0--------0--0--0---------|0--0--------3--3--3-1-1-1---|

|----------------------------|-----------------------------|-----------|
|----------------------------|-----------------------------|-----------|
|------5/7-7---------5/7--4--|----4------4------4------4---|-----------|
|------5/7-7---------5/7--3--|----3------3------3------3---|0----------|
|------3/5-5---------3/5--3--|----3------3------3------3---|0----------|
|0--0--------0--0--0------3--|0-0-3--0-0-3--0-0-3--0-0-3---|0----------|
                              PM-|   PM-|   PM-|   PM-|


Interlude     gtr 1

|0-----------|0-----------|0------------------|----------4---|------------|
|6-----------|6-----------|---6------6--------|--------------|-----0------|
|7-----------|7-----------|------7------7-----|7------7------|--7---------|
|------------|------------|----------------0--|6---6---------|--------6---|
|------------|------------|-------------------|--------------|------------|
|------------|------------|-------------------|--------------|------------|

|-----0------|------10-----10---|
|6-------6---|---9------9-------|
|7-----------|7-----------------|
|7-----------|------------------|
|------------|------------------|
|------------|------------------|


Solo   gtr 1  w/ wah

|--------------------------------------------------------------------------|
|-------------------10---13-13-13-13-12-12----10-------13-13-13-12--10-----|
|-------------------10----------------------------------------------10-----|
|12-12-----10h12-12------------------------12------------------------------|
|------12----------------------------------------12-12---------------------|
|--------------------------------------------------------------------------|

|----------------------12-12-12-12----12-12-12-12----12-12-12-12------12-12|
|12p10----10------------x--x--x--x-----x--x--x--x-----x--x--x--x-------x--x|
|12p10----10-----------10-10-10-10----10-10-10-10----10-10-10-10------10-10|
|------12--------9-9-9--------------9--------------9--------------9-9------|
|-------------12-----------------------------------------------------------|
|--------------------------------------------------------------------------|

|12----12-12-12-12---------------------------------------------------------|
|-x-----x--x--x--x---------------------10---13-13-13-13-12-12----10--------|
|10----10-10-10-10---------------------10----------------------------------|
|----9--------------12-12-----10h12-12------------------------12-----------|
|-------------------------12----------------------------------------12-12--|
|--------------------------------------------------------------------------|

|---------------------------------------12-12-12-12----12-12-12-12----12-12|
|13-13-13-12--10--12p10----10------------x--x--x--x-----x--x--x--x-----x--x|
|-------------10--12p10----10-----------10-10-10-10----10-10-10-10----10-10|
|-----------------------12--------9-9-9--------------9--------------9------|
|------------------------------12------------------------------------------|
|--------------------------------------------------------------------------|

|12-12------12-12-12------------------------|
|-x--x-------x--x--x------------------------|  end of
|10-10------10-10-10---------------7--------|  Solo
|-------9-9---------------------------------|
|----------------------0---0---0------------|
|----------------------0---0---0------------|
                       PM-------|  NH w/ bar



gtr 1   wah off

|-----------------------------|-----------------------------|
|-----------------------------|-----------------------------|
|-----------------------------|-----------------------------|
|------5/7-7----------5/7-7-7-|-----5/7-7----------/7--x-7--|
|------5/7-7----------5/7-7-7-|-----5/7-7----------/7--x-7--|
|------3/5-5----------3/5-5-5-|-----3/5-5----------/5--x-5--|
|0--0--------0---0--0---------|0--0-------0---0--0----------|

wah on

|-----------------|----------------|
|-----------------|9---9---9---9---|
|7-7---7---7---7--|x---x---x---x---|
|x-x---x---x---x--|6---6---6---6---|
|5-5---5---5---5--|----------------|
|-----------------|----------------|


gtr 2

|-----------------------------|-----------------------------|
|-----------------------------|-----------------------------|
|-----------------------------|-----------------------------|
|------5/7-7----------5/7-7-7-|-----5/7-7----------/7--x-7--|
|------5/7-7----------5/7-7-7-|-----5/7-7----------/7--x-7--|
|------3/5-5----------3/5-5-5-|-----3/5-5----------/5--x-5--|
|0--0--------0---0--0---------|0--0-------0---0--0----------|

 /-------------2x------------\

|-----------------------------|
|-----------------------------|
|-----------------------------|
|------5/7-7----------5/7-7-7-|
|------5/7-7----------5/7-7-7-|
|------3/5-5----------3/5-5-5-|
|0--0--------0---0--0---------|


Bridge   gtrs 1 & 2   wah off                        gtr 1   w/ wah

|----------------|---------------|-----------------|-------------------|
|----------------|---------------|-----------------|-------------------|
|----------------|---------------|-----------------|--------13^r-------|
|----------------|---------------|-----------------|--------12^r-------|
|----------------|---------------|-----------------|-------------------|
|3-3-3-3-3-3-3---|3-3-3-3-3-3----|3-3-3-3-3-3-3----|-------------------|
 NH--------------------------------------------|


Chorus 3    gtrs 1 & 2   wah off

 /-----------------------------5x------------------------\

|----------------------------|----------------------------|
|----------------------------|----------------------------|
|------5/7-7---------5/7-7-7-|------5/7-7-----------------|
|------5/7-7---------5/7-7-7-|------5/7-7-3--3--3-1-1-1---|
|------3/5-5---------3/5-5-5-|------3/5-5-3--3--3-1-1-1---|
|0--0--------0--0--0---------|0--0--------3--3--3-1-1-1---|

|----------------------------|-----------------------------|
|----------------------------|-----------------------------|
|------5/7-7---------5/7--4--|----4------4------4------4---|
|------5/7-7---------5/7--3--|----3------3------3------3---|
|------3/5-5---------3/5--3--|----3------3------3------3---|
|0--0--------0--0--0------3--|0-0-3--0-0-3--0-0-3--0-0-3---|
                              PM-|   PM-|   PM-|   PM-|

 /-----------------------------2x------------------------\

|----------------------------|----------------------------|
|----------------------------|----------------------------|
|------5/7-7---------5/7-7-7-|------5/7-7-----------------|
|------5/7-7---------5/7-7-7-|------5/7-7-3--3--3-1-1-1---|
|------3/5-5---------3/5-5-5-|------3/5-5-3--3--3-1-1-1---|
|0--0--------0--0--0---------|0--0--------3--3--3-1-1-1---|

|----------------------------|
|----------------------------|
|------5/7-7---------5/7-7-7-|
|------5/7-7---------5/7-7-7-|
|------3/5-5---------3/5-5-5-|
|0--0--------0--0--0---------|


Outro    gtr 1  w/ wah

|------------------------|----------------------|------------------------|
|------------------------|----------------------|------------------------|
|4-----4-----4-----4-----|7-----7----7----7-----|10----10----10---10-----|
|3-----3-----3-----3-----|6-----6----6----6-----|-9-----9-----9----9-----|
|------------------------|----------------------|------------------------|
|---3-----3-----3-----3--|---6-----6----6----6--|----9-----9-----9----9--|

                                 /-------------2x------------\

|-------------------------------|-----------------------------|
|-------------------------------|-----------------------------|
|13------13-----13------13------|16-----16-----16-----16------|
|12------12-----12------12------|15-----15-----15-----15------|
|-------------------------------|-----------------------------|
|----12------12-----12------12--|----15-----15-----15-----15--|


gtr 2

|----------|----------|----------|------------|----------|------------|
|----------|----------|----------|------------|----------|------------|
|4---------|7---------|10--------|13----------|16--------|------------|
|3---------|6---------|-9--------|12----------|15--------|------------|
|3---------|6---------|-9--------|12----------|15--------|------------|
|3---------|6---------|-9--------|12----------|15--------|------------|


gtrs 1 & 2   wah off

|----------------------------|
|----------------------------|
|----------------------------|
|----------------------------|
|-----3h5-5--------3h5-5-5---|
|0-0--------0--0-0-----------|



Tab Legend
-----------

PM          palm mute
h           hammer on
p           pull off
TP          tremolo picking
NH          natrual harmonic
/           slide up
\           slide down
x           muted string
^           bend half step
r           release



9. Now Or Never
----------------

Drop D (D A D G B E)


Intro     gtrs 1 & 2   w/ wah

|----------------|-------------|------------|-------------|0--------------|
|----------------|-------------|------------|-----3-------|-----3---------|
|---sound--------|-------------|------------|-----2-------|----------2----|
|---effect-------|----10-------|----9-------|0------------|---------------|
|----------------|8------------|7-----------|0------------|---------------|
|----------------|-------------|------------|-------------|---------------|
                                                                PH

|-------------|-------------|-------------|-------------------------------|
|-------------|-------------|-----3-------|3-3--3-3--3-3-3-3-3-3-3-3-3-3--|
|-------------|-------------|-----2-------|2-2--2-2--2-2-2-2-2-2-2-2-2-2--|
|----10-------|-----12------|0------------|0-0--0-0--0-0-0-0-0-0-0-0-0-0--|
|8------------|10-----------|0------------|-------------------------------|
|-------------|-------------|-------------|-------------------------------|


wah off

|---------------------------|------------------------|
|---------------------------|------------------------|
|---------------------------|------------------------|
|0-0--0-10--0-0--0-0--6--7--|0-0--0-10--0-0--0-0--8--|
|0-0--0--8--0-0--0-0--6--7--|0-0--0--8--0-0--0-0--6--|
|0-0--0-----0-0--0-0--6--7--|0-0--0-----0-0--0-0-----|

|---------------------------|-----------------------------|
|---------------------------|-----------------------------|
|---------------------------|-----------------------------|
|0-0--0-10--0-0--0-0--6--7--|0-0--0-10--0-0--0-0--7-5-5-5-|
|0-0--0--8--0-0--0-0--6--7--|0-0--0--8--0-0--0-0----------|
|0-0--0-----0-0--0-0--6--7--|0-0--0-----0-0--0-0----------|
                                                  NH-----|

 /-------------------------2x-----------------------\  w/ wah

|---------------------------|------------------------|-----------------|
|---------------------------|------------------------|--------3--------|
|---------------------------|------------------------|--------2--------|
|0-0--0-10--0-0--0-0--6--7--|0-0--0-10--0-0--0-0--8--|----0------------|
|0-0--0--8--0-0--0-0--6--7--|0-0--0--8--0-0--0-0--6--|0----------------|
|0-0--0-----0-0--0-0--6--7--|0-0--0-----0-0--0-0-----|0----------------|



Verse 1     wah off                               w/ wah

 /--------------------------3x----------------------\

|---------------------------|------------------------|
|---------------------------|------------------------|
|---------------------------|------------------------|
|---------------------------|---------------------8--|
|--------7h8----------------|--------7h8----------6--|
|0--0-0-------0--0-0--6--7--|0--0-0-------0--0-0-----|
 PM----|      PM----|        PM----|      PM----|


Interlude  wah off

 /----------------------------2x--------------------\

|---------------------------|------------------------|
|---------------------------|------------------------|
|---------------------------|------------------------|
|0-0--0-10--0-0--0-0--6--7--|0-0--0-10--0-0--0-0--8--|
|0-0--0--8--0-0--0-0--6--7--|0-0--0--8--0-0--0-0--6--|
|0-0--0-----0-0--0-0--6--7--|0-0--0-----0-0--0-0-----|


Verse 2     wah off                               w/ wah

 /--------------------------3x----------------------\

|---------------------------|------------------------|
|---------------------------|------------------------|
|---------------------------|------------------------|
|---------------------------|---------------------8--|
|--------7h8----------------|--------7h8----------6--|
|0--0-0-------0--0-0--6--7--|0--0-0-------0--0-0-----|
 PM----|      PM----|        PM----|      PM----|



Pre-Chorus 1    wah off

                                           /--------------2x------------\
 
|---------------|-------------------------|------------------------------|
|---------------|-------------------------|------------------------------|
|7--------------|5-5-5-5-5-5-5-5-5--------|5-7-7-7-10\5-5---7-7-7--------|
|7--------------|5-5-5-5-5-5-5-5-5--------|5-7-7-7-10\5-5---7-7-7-5--7---|
|5--------------|3-3-3-3-3-3-3-3-3--------|3-5-5-5--8\3-3---5-5-5-5--7---|
|---------------|-------------------------|-----------------------5--7---|

                                   /--------------2x-----------\

|---------------|-----------------|-----------------------------|
|---------------|-----------------|-----------------------------|
|---------------|-----------------|5-7-7-7-10\5-5---7-7-7-------|
|5--------------|3----3---3---3---|5-7-7-7-10\5-5---7-7-7-5--7--|
|5--------------|3----3---3---3---|3-5-5-5--8\3-3---5-5-5-5--7--|
|5--------------|3----3---3---3---|-----------------------5--7--|


Chorus 1

|------------------|-------------------|------------------|----------------|
|3-----------------|-------------------|3-----------------|----------------|
|2-----------------|-------------------|2-----------------|----------------|
|0-----------7--5--|--------------3----|0-----------7--5--|--------------3-|
|---------0--7--5--|---------7-5--3----|0-----------7--5--|---------7-5--3-|
|---------0--7--5--|-----0-0-7-5--3----|0--------0--7--5--|-----0-0-7-5--3-|
                         PM-----|                               PM-----|


Interlude

 /----------------------------2x--------------------\

|---------------------------|------------------------|
|---------------------------|------------------------|
|---------------------------|------------------------|
|0-0--0-10--0-0--0-0--6--7--|0-0--0-10--0-0--0-0--8--|
|0-0--0--8--0-0--0-0--6--7--|0-0--0--8--0-0--0-0--6--|
|0-0--0-----0-0--0-0--6--7--|0-0--0-----0-0--0-0-----|


Verse 3     wah off                               w/ wah

 /--------------------------3x----------------------\

|---------------------------|------------------------|
|---------------------------|------------------------|
|---------------------------|------------------------|
|---------------------------|---------------------8--|
|--------7h8----------------|--------7h8----------6--|
|0--0-0-------0--0-0--6--7--|0--0-0-------0--0-0-----|
 PM----|      PM----|        PM----|      PM----|


Pre-Chorus 2    wah off

                                           /--------------2x------------\
 
|---------------|-------------------------|------------------------------|
|---------------|-------------------------|------------------------------|
|7--------------|5-5-5-5-5-5-5-5-5--------|5-7-7-7-10\5-5---7-7-7--------|
|7--------------|5-5-5-5-5-5-5-5-5--------|5-7-7-7-10\5-5---7-7-7-5--7---|
|5--------------|3-3-3-3-3-3-3-3-3--------|3-5-5-5--8\3-3---5-5-5-5--7---|
|---------------|-------------------------|-----------------------5--7---|

                                   /--------------2x-----------\

|---------------|-----------------|-----------------------------|
|---------------|-----------------|-----------------------------|
|---------------|-----------------|5-7-7-7-10\5-5---7-7-7-------|
|5--------------|3----3---3---3---|5-7-7-7-10\5-5---7-7-7-5--7--|
|5--------------|3----3---3---3---|3-5-5-5--8\3-3---5-5-5-5--7--|
|5--------------|3----3---3---3---|-----------------------5--7--|

|---------------|-------------------------|
|---------------|-------------------------|
|7--------------|5-5-5-5-5-5-5-5-5--------|
|7--------------|5-5-5-5-5-5-5-5-5--------|
|5--------------|3-3-3-3-3-3-3-3-3--------|
|---------------|-------------------------|

                                           /--------------2x------------\
 
|---------------|-------------------------|------------------------------|
|---------------|-------------------------|------------------------------|
|7--------------|5-5-5-5-5-5-5-5-5--------|5-7-7-7-10\5-5---7-7-7--------|
|7--------------|5-5-5-5-5-5-5-5-5--------|5-7-7-7-10\5-5---7-7-7-5--7---|
|5--------------|3-3-3-3-3-3-3-3-3--------|3-5-5-5--8\3-3---5-5-5-5--7---|
|---------------|-------------------------|-----------------------5--7---|

                                   /--------------2x-----------\

|---------------|-----------------|-----------------------------|
|---------------|-----------------|-----------------------------|
|---------------|-----------------|5-7-7-7-10\5-5---7-7-7-------|
|5--------------|3----3---3---3---|5-7-7-7-10\5-5---7-7-7-5--7--|
|5--------------|3----3---3---3---|3-5-5-5--8\3-3---5-5-5-5--7--|
|5--------------|3----3---3---3---|-----------------------5--7--|





Chorus 2

 /-----------------4x--------------\

|------------------|----------------|
|3-----------------|----------------|
|2-----------------|----------------|
|0-----------7--5--|--------------3-|
|0-----------7--5--|---------7-5--3-|
|0--------0--7--5--|-----0-0-7-5--3-|
                         PM-----|


Bridge    w/ wah

|--------------------------------------|
|----------3---------------------------|
|----------2---------------------------|
|-----0--------------------------------|
|0-------------------------------------|
|0-------------------------------------|


gtr 1

|----------------------------------------|
|-(3)------------------------------------|
|-(2)------------------------------------|
|----------------------------------------|
|----------------------------------------|
|----------------------------------------|


gtr 2

|----------------------------------------|
|-(3)-----------------3------------------|
|-(2)-----------2----------2-------------|
|----------------------------------------|
|----------------------------------------|
|----------------------------------------|



gtr 1 (Rythm)

 /----------------------------4x--------------------\

|---------------------------|------------------------|
|---------------------------|------------------------|
|---------------------------|------------------------|
|0-0--0-10--0-0--0-0--6--7--|0-0--0-10--0-0--0-0--8--|
|0-0--0--8--0-0--0-0--6--7--|0-0--0--8--0-0--0-0--6--|
|0-0--0-----0-0--0-0--6--7--|0-0--0-----0-0--0-0-----|


gtr 2 (Solo)   w/ wah

|--------------------------------------------------------------------------|
|x-0----------------------x-12-12^---12p^r(12)p10-12--12^r(12)p10--12------|
|x-0--12^^--12^^--12^^--x---------------------------------------------10-10|
|x-0--------------------x--------------------------------------------------|
|-----------------------x--------------------------------------------------|
|--------------------------------------------------------------------------|

|--------------------------------------------------------------------------|
|---12----13----12----13----12--------------0-0-------------10-------------|
|10----10----10----10----10----10-10-10-10--0-0-12^^--12^^--12^^---10^^^---|
|-------------------------------------------0-0----------------------------|
|--------------------------------------------------------------------------|
|--------------------------------------------------------------------------|

|--------------------------------------------------------------------------|
|--------6----------------3------3------3------3---------------------------|
|10p^^^--8^^--(8)\5--5^^----5^^----5^^----5^^----5^^--5^^----/7-7--7-7-7-7-|
|--------------------------------------------------------------------------|
|--------------------------------------------------------------------------|
|--------------------------------------------------------------------------|

|---------|
|---------|
|7-7-7----|  end of
|---------|  solo
|---------|
|---------|



Pre-Chorus     gtr 1

|----------|-------------------------|
|----------|-------------------------|
|7---------|--5--5--5----5-----------|
|7---------|--5--5--5----5-----------|
|5---------|--3--3--3----3-----------|
|----------|-------------------------|


gtr 2

|----------|-------------------------|
|----------|-------------------------|
|----------|-/7--7--7-7-7-7-7-7-7-7--|
|----------|--x--x--x-x-x-x-x-x-x-x--|
|----------|-/5--5--5-5-5-5-5-5-5-5--|
|----------|-------------------------|


gtrs 1 & 2    wah off

 /--------------2x-----------\

|-----------------------------|---------------|----------------|
|-----------------------------|---------------|----------------|
|5-7-7-7-10\5-5---7-7-7-------|---------------|----------------|
|5-7-7-7-10\5-5---7-7-7-5--7--|5--------------|3----3----3-----|
|3-5-5-5--8\3-3---5-5-5-5--7--|5--------------|3----3----3-----|
|-----------------------5--7--|5--------------|3----3----3-----|


 /--------------4x-----------\

|-----------------------------|
|-----------------------------|
|5-7-7-7-10\5-5---7-7-7-------|
|5-7-7-7-10\5-5---7-7-7-5--7--|
|3-5-5-5--8\3-3---5-5-5-5--7--|
|-----------------------5--7--|


Outro    w/ wah

|----------------------------|---------------------------------|
|----------------------------|---------------------------------|
|-/10---10--10--10-10-10-10--|9-9-9-9-9-9-9-9-9-9-9-9-9-9-9-9--|
|--x-----x---x---x--x--x--x--|x-x-x-x-x-x-x-x-x-x-x-x-x-x-x-x--|
|-/8-----8---8---8--8--8--8--|7-7-7-7-7-7-7-7-7-7-7-7-7-7-7-7--|
|----------------------------|---------------------------------|

 /---------------2x-------------\

|--------------------------------|
|--------------------------------|
|7-7-7-7-7-7-7-7-7-7-7-7-7-7-7-7-|
|x-x-x-x-x-x-x-x-x-x-x-x-x-x-x-x-|
|5-5-5-5-5-5-5-5-5-5-5-5-5-5-5-5-|
|--------------------------------|

|-----------------------------------------------|
|-----------------------------------------------|
|-10-10-10-10-10-10-10-10-10-10-10-10-10-10-10--|
|--x--x--x--x--x--x--x--x--x--x--x--x--x--x--x--|
|--8--8--8--8--8--8--8--8--8--8--8--8--8--8--8--|
|-----------------------------------------------|

|--------------------------------|---------------------------------|
|--------------------------------|---------------------------------|
|9-9-9-9-9-9-9-9-9-9-9-9-9-9-9-9-|7-7-7-7-7-7-7-7-7-7-7-7-7-7-7-7--|
|x-x-x-x-x-x-x-x-x-x-x-x-x-x-x-x-|x-x-x-x-x-x-x-x-x-x-x-x-x-x-x-x--|
|7-7-7-7-7-7-7-7-7-7-7-7-7-7-7-7-|5-5-5-5-5-5-5-5-5-5-5-5-5-5-5-5--|
|--------------------------------|---------------------------------|

|--------------------------|----------------------------|
|--------------------------|----------------------------|
|7-7-7-7--7-7-7-7--7-7-7-7-|5-7-7-7-10\5-5--7-7-7-------|
|7-7-7-7--7-7-7-7--7-7-7-7-|5-7-7-7-10\5-5--7-7-7-5--7--|
|5-5-5-5--5-5-5-5--5-5-5-5-|3-5-5-5--8\3-3--5-5-5-5--7--|
|--------------------------|----------------------5--7--|

|------------------------|-------------|
|------------------------|-------------|
|5-7-7-7-10\5----7-7-----|-----(7)\----|
|5-7-7-7-10\5----7-7-----|-----(7)\----|
|3-5-5-5--8\3----5-5-----|-----(5)\----|
|------------------------|-------------|



Tab Legend
-----------

PM         palm mute
h          hammer on
p          pull off
()         note is ringing
/          slide up
\          slide down
x          muted string
^          bend half step
^^         bend full step
^^^        bend full step and a half
p^         pre-bend half step
r          release



10. Stress
-----------

Drop D (D A D G B E)



Intro    gtrs 1 & 2

|-----------------------------|--------------------------|
|-----------------------------|--------------------------|
|-----------------------------|--------------------------|
|0h4-4-4-4--0h4-4-4-4--0h4-5--|0h4-4-4-4--0h4-4-4-4--4---|
|0h2-2-2-2--0h2-2-2-2--0h2-3--|0h2-2-2-2--0h2-2-2-2--2---|
|-----------------------------|--------------------------|

|-----------------------------|--------------------------|
|-----------------------------|--------------------------|
|-----------------------------|--------------------------|
|0h4-4-4-4--0h4-4-4-4--0h4-5--|0h4-4-4-4--0h4-4-4-4------|
|0h2-2-2-2--0h2-2-2-2--0h2-3--|0h2-2-2-2--0h2-2-2-2------|
|-----------------------------|--------------------------|

 /----------------------------2x------------------------\

|-----------------------------|--------------------------|
|-----------------------------|--------------------------|
|-----------------------------|--------------------------|
|0h4-4-4-4--0h4-4-4-4--0h4-5--|0h4-4-4-4--0h4-4-4-4--4---|
|0h2-2-2-2--0h2-2-2-2--0h2-3--|0h2-2-2-2--0h2-2-2-2--2---|
|-----------------------------|--------------------------|


Verse 1

 /----------------------------3x------------------------\

|-----------------------------|--------------------------|
|-----------------------------|--------------------------|
|-----------------------------|--------------------------|
|0h4-4-4-4--0h4-4-4-4--0h4-5--|0h4-4-4-4--0h4-4-4-4--4---|
|0h2-2-2-2--0h2-2-2-2--0h2-3--|0h2-2-2-2--0h2-2-2-2--2---|
|-----------------------------|--------------------------|

|-----------------------------|-----------------------------|
|-----------------------------|-----------------------------|
|-----------------------------|-----------------------------|
|0h4-4-4-4--0h4-4-4-4--0h4-5--|0h4-4-4-4--0h4-4-4-4--4--0h4-|
|0h2-2-2-2--0h2-2-2-2--0h2-3--|0h2-2-2-2--0h2-2-2-2--2--0h2-|
|-----------------------------|-----------------------------|



Chorus 1

                                 /--------------2x-------------\

|-----------------|-------------|-------------------------------|
|-----------------|-------------|-------------------------------|
|-----------------|-------------|-------------------------------|
|-/9---9---9-9-9--|7--7--12--7--|0h4-4-4-4--0h4-4-4-4--0h4-4-4--|
|-/7---7---7-7-7--|5--5--10--5--|0h2-2-2-2--0h2-2-2-2--0h2-2-2--|
|-----------------|-------------|-------------------------------|

|-----------------|-------------|
|-----------------|-------------|
|-----------------|-------------|
|-/9---9---9-9-9--|7--7--12--7--|
|-/7---7---7-7-7--|5--5--10--5--|
|-----------------|-------------|




Interlude    two gtrs

 /--------------4x---------------\

|---------------------------------|
|---------------------------------|
|---------------------------------|
|2-2-2-2-2-2-2-2-2-3-3-3-0-0-0-0--|
|---------------------------------|
|2-2-2-2-2-2-2-2-2-3-3-3-0-0-0-0--|
 PM-----------------------------|


gtrs 1 & 2

 /----------------------------2x------------------------\

|-----------------------------|--------------------------|
|-----------------------------|--------------------------|
|-----------------------------|--------------------------|
|0h4-4-4-4--0h4-4-4-4--0h4-5--|0h4-4-4-4--0h4-4-4-4--4---|
|0h2-2-2-2--0h2-2-2-2--0h2-3--|0h2-2-2-2--0h2-2-2-2--2---|
|-----------------------------|--------------------------|


Verse 2

 /----------------------------3x------------------------\

|-----------------------------|--------------------------|
|-----------------------------|--------------------------|
|-----------------------------|--------------------------|
|0h4-4-4-4--0h4-4-4-4--0h4-5--|0h4-4-4-4--0h4-4-4-4--4---|
|0h2-2-2-2--0h2-2-2-2--0h2-3--|0h2-2-2-2--0h2-2-2-2--2---|
|-----------------------------|--------------------------|

|-----------------------------|-----------------------------|
|-----------------------------|-----------------------------|
|-----------------------------|-----------------------------|
|0h4-4-4-4--0h4-4-4-4--0h4-5--|0h4-4-4-4--0h4-4-4-4--4--0h4-|
|0h2-2-2-2--0h2-2-2-2--0h2-3--|0h2-2-2-2--0h2-2-2-2--2--0h2-|
|-----------------------------|-----------------------------|



Chorus 2

                                 /--------------2x-------------\

|-----------------|-------------|-------------------------------|
|-----------------|-------------|-------------------------------|
|-----------------|-------------|-------------------------------|
|-/9---9---9-9-9--|7--7--12--7--|0h4-4-4-4--0h4-4-4-4--0h4-4-4--|
|-/7---7---7-7-7--|5--5--10--5--|0h2-2-2-2--0h2-2-2-2--0h2-2-2--|
|-----------------|-------------|-------------------------------|

|-----------------|-------------|
|-----------------|-------------|
|-----------------|-------------|
|-/9---9---9-9-9--|7--7--12--7--|
|-/7---7---7-7-7--|5--5--10--5--|
|-----------------|-------------|




Bridge    two gtrs

 /-------------12x---------------\

|---------------------------------|
|---------------------------------|
|---------------------------------|
|2-2-2-2-2-2-2-2-2-3-3-3-0-0-0-0--|
|---------------------------------|
|2-2-2-2-2-2-2-2-2-3-3-3-0-0-0-0--|
 PM-----------------------------|


gtrs 1 & 2

 /---------------------------------2x-----------------------------\

|---------------------------------|--------------------------------|
|---------------------------------|--------------------------------|
|---------------------------------|--------------------------------|
|10\9-9-9-9-9-9-9-9--9-9-10\9-9-9-|10\9-9-9-9-9-9-9--7-7--7-7-7-7--|
|10\9-9-9-9-9-9-9-9--9-9-10\9-9-9-|10\9-9-9-9-9-9-9--7-7--7-7-7-7--|
|10\9-9-9-9-9-9-9-9--9-9-10\9-9-9-|10\9-9-9-9-9-9-9--7-7--7-7-7-7--|

|---------------------------------|---------------------------|
|---------------------------------|---------------------------|
|---------------------------------|---------------------------|
|10\9-9-9-9-9-9-9-9--9-9-10\9-9-9-|10\9-9-9-9-9-9-9--x-7--7\--|
|10\9-9-9-9-9-9-9-9--9-9-10\9-9-9-|10\9-9-9-9-9-9-9--x-7--7\--|
|10\9-9-9-9-9-9-9-9--9-9-10\9-9-9-|10\9-9-9-9-9-9-9--x-7--7\--|


two gtrs

 /--------------4x---------------\

|---------------------------------|
|---------------------------------|
|---------------------------------|
|2-2-2-2-2-2-2-2-2-3-3-3-0-0-0-0--|
|---------------------------------|
|2-2-2-2-2-2-2-2-2-3-3-3-0-0-0-0--|
 PM-----------------------------|


gtrs 1 & 2

 /---------------------------------4x-----------------------------\

|---------------------------------|--------------------------------|
|---------------------------------|--------------------------------|
|---------------------------------|--------------------------------|
|10\9-9-9-9-9-9-9-9--9-9-10\9-9-9-|10\9-9-9-9-9-9-9--7-7--7-7-7-7--|
|10\9-9-9-9-9-9-9-9--9-9-10\9-9-9-|10\9-9-9-9-9-9-9--7-7--7-7-7-7--|
|10\9-9-9-9-9-9-9-9--9-9-10\9-9-9-|10\9-9-9-9-9-9-9--7-7--7-7-7-7--|

|---------------------------------|--------------------------------|
|---------------------------------|--------------------------------|
|---------------------------------|--------------------------------|
|10\9-9-9-9-9-9-9-9--9-9-10\9-9-9-|10\9-9-9-9-9-9-9--7-7--7--7---5-|
|10\9-9-9-9-9-9-9-9--9-9-10\9-9-9-|10\9-9-9-9-9-9-9--7-7--7--7---5-|
|10\9-9-9-9-9-9-9-9--9-9-10\9-9-9-|10\9-9-9-9-9-9-9--7-7--7--7---5-|



gtr 1

|----------------|------------------|----------|---------------|
|----------------|------------------|----------|---------------|
|----------------|------------------|---11^r---|11^r---11^r----|
|-/9-------(9)---|--/12----(12)^^r--|----------|---------------|
|--x-------------|------------------|----------|---------------|
|-/9-------(9)---|------------------|----------|---------------|
           fdbk.                        vol.    vol.   vol. 
                                        swell   swell  swell


|--------------|----------------------------------------------------------|
|--------------|----------------------------------------------------------|
|--------------|----------------------------------------------------------|
|7---5---(5)\--|---------12----(12)^^r(12)^^r(12)^^r(12)^^r(12)^^r(12)^^r-|
|--------------|----------------------------------------------------------|
|--------------|-/16^r----------------------------------------------------|
 NH  NH   NH             vol.
     w/   w/             swell
     bar  bar


|------------------------------------|------------------------------------|
|------------------------------------|-12---------------------------------|
|------------------------------------|-15---------------------------------|
|(12)^^r(12)^^r(12)^^r(12)^^r(12)^^r-|--------9-----(9)---------------(9)-|
|------------------------------------|------------------------------------|
|------------------------------------|---------------------12-12^^--------|
                                       vol.   vol.   fdbk.             fdbk.
                                       swell  swell

|-----------|------------------------------|-----------------------------|
|-----------|------------------------------|------------------------12---|
|-(9)-------|-11^r(11)^r(11)^r(11)^r(11)^r-|-11^r(11)^----11^------------|
|-----------|------------------------------|-----------------------------|
|-----------|------------------------------|--------------------7/9------|
|-------x\--|------------------------------|-----------------------------|
   fdbk.                             fdbk.-------------------|


gtr 1

|-------------------------------|
|14-----------------------------|
|12-----------------------------|
|11-----------------------------|
|10-----------------------------|
|-------------------------------|


gtr 2

|-------------------------------|
|-----------------------(12)----|
|-------------------------------|
|-------------------------------|
|-------------------------------|
|-------------------------------|
                         fdbk.


Outro    gtrs 1 & 2

 /-----------7x--------------\

|-----------------------------|--------------------------|
|-----------------------------|--------------------------|
|-----------------------------|--------------------------|
|0h4-4-4-4--0h4-4-4-4--0h4-5--|0h4-4-4-4--0h4-4-4-4------|
|0h2-2-2-2--0h2-2-2-2--0h2-3--|0h2-2-2-2--0h2-2-2-2------|
|-----------------------------|--------------------------|



Tab Legend
-----------

PM             palm mute
h              hammer on
/              slide up
\              slide down
vol. swell     volume swell
fdbk.          feedback
^              bend half step
^^             bend full step
r              release
()             note is ringing



11. Situation
--------------

Drop D (D A D G B E)


Intro    gtrs 1 & 2

|------------------|------------------------------|
|------------------|------------------------------|
|-----sound--------|8\7-7--7--7-7-8\7-7-7---7-7-7-|
|-----effect-------|8\7-7--7--7-7-8\7-7-7---7-7-7-|
|------------------|6\5-5--5--5-5-6\5-5-5---5-5-5-|
|------------------|------------------------------|

|-------------------------------|---------------------------------|
|-------------------------------|---------------------------------|
|8\7-7--7--7-7-8\7-7-10---------|--------7---7-7-8\7-7-7--7-7-7---|
|8\7-7--7--7-7-8\7-7-10---0-1-3-|1-0-0---7---7-7-8\7-7-7--7-7-7---|
|6\5-5--5--5-5-6\5-5--8---0-1-3-|1-0-0---5---5-5-6\5-5-5--5-5-5---|
|-------------------------0-1-3-|1-0-0----------------------------|

|--------------------------------|
|--------------------------------|
|8\7-7--7--7-7-8\7-7-10----------|
|8\7-7--7--7-7-8\7-7-10--0--1--3-|
|6\5-5--5--5-5-6\5-5--8--0--1--3-|
|------------------------0--1--3-|

 /-------------------------------2x------------------------------\

|-------------------------------|---------------------------------|
|-------------------------------|---------------------------------|
|--------7--7-7-8\7-7-7--7-7-7--|8\7-7--7--7-7-8\7-7-10-----------|
|1-0-0---7--7-7-8\7-7-7--7-7-7--|8\7-7--7--7-7-8\7-7-10---0-1-3---|
|1-0-0---5--5-5-6\5-5-5--5-5-5--|6\5-5--5--5-5-6\5-5--8---0-1-3---|
|1-0-0--------------------------|-------------------------0-1-3---|


Verse 1

|-----------|------------------------------|-------------------------------|
|-----------|------------------------------|-------------------------------|
|-----------|8\7-7--7--7-7-8\7-7-7---7-7-7-|8\7-7--7--7-7-8\7-7-10---------|
|-----------|8\7-7--7--7-7-8\7-7-7---7-7-7-|8\7-7--7--7-7-8\7-7-10---0-1-3-|
|-----------|6\5-5--5--5-5-6\5-5-5---5-5-5-|6\5-5--5--5-5-6\5-5--8---0-1-3-|
|-----------|------------------------------|-------------------------0-1-3-|

|-------------------------------|---------------------------------|
|-------------------------------|---------------------------------|
|--------7--7-7-8\7-7-7--7-7-7--|8\7-7--7--7-7-8\7-7-10-----------|
|1-0-0---7--7-7-8\7-7-7--7-7-7--|8\7-7--7--7-7-8\7-7-10---0-1-3---|
|1-0-0---5--5-5-6\5-5-5--5-5-5--|6\5-5--5--5-5-6\5-5--8---0-1-3---|
|1-0-0--------------------------|-------------------------0-1-3---|

|-----------|------------------------------|-------------------------------|
|-----------|------------------------------|-------------------------------|
|-----------|8\7-7--7--7-7-8\7-7-7---7-7-7-|8\7-7--7--7-7-8\7-7-10---------|
|0----------|8\7-7--7--7-7-8\7-7-7---7-7-7-|8\7-7--7--7-7-8\7-7-10---0-1-3-|
|0----------|6\5-5--5--5-5-6\5-5-5---5-5-5-|6\5-5--5--5-5-6\5-5--8---0-1-3-|
|0----------|------------------------------|-------------------------0-1-3-|



Chorus 1

 /-------------------------------4x------------------------------\

|-------------------------------|---------------------------------|
|-------------------------------|---------------------------------|
|--------7--7-7-8\7-7-7--7-7-7--|8\7-7--7--7-7-8\7-7-10-----------|
|1-0-0---7--7-7-8\7-7-7--7-7-7--|8\7-7--7--7-7-8\7-7-10---0-1-3---|
|1-0-0---5--5-5-6\5-5-5--5-5-5--|6\5-5--5--5-5-6\5-5--8---0-1-3---|
|1-0-0--------------------------|-------------------------0-1-3---|



Verse 2

|-----------|------------------------------|-------------------------------|
|-----------|------------------------------|-------------------------------|
|-----------|8\7-7--7--7-7-8\7-7-7---7-7-7-|8\7-7--7--7-7-8\7-7-10---------|
|-----------|8\7-7--7--7-7-8\7-7-7---7-7-7-|8\7-7--7--7-7-8\7-7-10---0-1-3-|
|-----------|6\5-5--5--5-5-6\5-5-5---5-5-5-|6\5-5--5--5-5-6\5-5--8---0-1-3-|
|-----------|------------------------------|-------------------------0-1-3-|

|-------------------------------|---------------------------------|
|-------------------------------|---------------------------------|
|--------7--7-7-8\7-7-7--7-7-7--|8\7-7--7--7-7-8\7-7-10-----------|
|1-0-0---7--7-7-8\7-7-7--7-7-7--|8\7-7--7--7-7-8\7-7-10---0-1-3---|
|1-0-0---5--5-5-6\5-5-5--5-5-5--|6\5-5--5--5-5-6\5-5--8---0-1-3---|
|1-0-0--------------------------|-------------------------0-1-3---|

|-----------|------------------------------|-------------------------------|
|-----------|------------------------------|-------------------------------|
|-----------|8\7-7--7--7-7-8\7-7-7---7-7-7-|8\7-7--7--7-7-8\7-7-10---------|
|1-0-0------|8\7-7--7--7-7-8\7-7-7---7-7-7-|8\7-7--7--7-7-8\7-7-10---0-1-3-|
|1-0-0------|6\5-5--5--5-5-6\5-5-5---5-5-5-|6\5-5--5--5-5-6\5-5--8---0-1-3-|
|1-0-0------|------------------------------|-------------------------0-1-3-|



Chorus 2

 /-------------------------------4x------------------------------\

|-------------------------------|---------------------------------|
|-------------------------------|---------------------------------|
|--------7--7-7-8\7-7-7--7-7-7--|8\7-7--7--7-7-8\7-7-10-----------|
|1-0-0---7--7-7-8\7-7-7--7-7-7--|8\7-7--7--7-7-8\7-7-10---0-1-3---|
|1-0-0---5--5-5-6\5-5-5--5-5-5--|6\5-5--5--5-5-6\5-5--8---0-1-3---|
|1-0-0--------------------------|-------------------------0-1-3---|

|--------------------------------|
|--------------------------------|
|--------------------------------|
|3---3-3----1-1---1-1----0-1-3---|
|3---3-3----1-1---1-1----0-1-3---|
|3---3-3p0--1-1---1-1p0--0-1-3p0-|




Interlude

 /------------------------------2x------------------------------\

|--------------------------------|-------------------------------|
|--------------------------------|-------------------------------|
|--------------------------------|----------------------------4--|
|0-0---0-0---0-0---0-0---0-0-1-3-|0-0---0-0---0-0---0-0---0-0-3--|
|0-0---0-0---0-0---0-0---0-0-1-3-|0-0---0-0---0-0---0-0---0-0-2--|
|0-0---0-0---0-0---0-0---0-0-1-3-|0-0---0-0---0-0---0-0---0-0----|



Bridge

 /------------------------------4x------------------------------\

|--------------------------------|-------------------------------|
|--------------------------------|-------------------------------|
|--------------------------------|----------------------------4--|
|0-0---0-0---0-0---0-0---0-0-1-3-|0-0---0-0---0-0---0-0---0-0-3--|
|0-0---0-0---0-0---0-0---0-0-1-3-|0-0---0-0---0-0---0-0---0-0-2--|
|0-0---0-0---0-0---0-0---0-0-1-3-|0-0---0-0---0-0---0-0---0-0----|



|--------------------------|--------------------------|
|--------------------------|--------------------------|
|-/7---7-7-7-7---7-7--8--5-|-/7---7-7--7---7-7-7-8-10-|
|--x---x-x-x-x---x-x--x--x-|--x---x-x--x---x-x-x-x--x-|
|-/5---5-5-5-5---5-5--6--3-|-/5---5-5--5---5-5-5-6--8-|
|--------------------------|--------------------------|

|----------------------------|-------------------------------|
|----------------------------|-------------------------------|
|8\7---7-7-7-7-7---7-7--8--5-|-/7--7-7--7--------------------|
|x-------0-0-0-0---x-x--x--x-|--x--x-x--x-7-7---7-7-7-7-7-7--|
|6\5---5-5-5-5-5---5-5--6--3-|-/5--5-5--5-x-x---x-x-x-x-x-x--|
|----------------------------|------------7-7---7-7-7-7-7-7--|

|--------------------------|--------------------------|
|--------------------------|--------------------------|
|-/7---7-7-7-7---7-7--8--5-|-/7---7-7--7---7-7-7-8-10-|
|--x---x-x-x-x---x-x--x--x-|--x---x-x--x---x-x-x-x--x-|
|-/5---5-5-5-5---5-5--6--3-|-/5---5-5--5---5-5-5-6--8-|
|--------------------------|--------------------------|

|----------------------------|----------------------------|-------------|
|----------------------------|--------------7-7-7---------|-------------|
|8\7---7-7-7-7-7---7-7--8--5-|-/7--7-7--7---7-7-7-5--8----|-------------|
|x-------0-0-0-0---x-x--x--x-|--x--x-x--x---7-7-7-x--x----|3------------|
|6\5---5-5-5-5-5---5-5--6--3-|-/5--5-5--5---5-5-5-3--6----|3------------|
|----------------------------|----------------------------|3------------|


gtr 1 (Solo)

|---------------13--------------------------------------------------------|
|---------13-13------13---------------------------------------------------|
|-/12--14---------------14---14--13-----13-----13------13-----13---13^^---|
|-------------------------------------------------------------------------|
|-------------------------------------------------------------------------|
|-------------------------------------------------------------------------|
                                 TP-----------------------------|

|--------------------------------------------------------------------------|
|10h13p10----10---------10--13---------------------------------------------|
|---------12----10-12^------12^^r(12)^^^^^r--10h12p10--------------------10|
|------------------------------------------------------10-10-10h12p10-12---|
|--------------------------------------------------------------------------|
|--------------------------------------------------------------------------|

|--------------------------------------------------------------------------|
|------------------------------------------------10h13p10----10h13p10----10|
|---------------10----10h12h13p12p10----10-12^^-----------12----------12---|
|12p10-12-10h12----12----------------12------------------------------------|
|--------------------------------------------------------------------------|
|--------------------------------------------------------------------------|

|------10---------------------------------------------------------16-------|
|13^^-----13^^-13^^--------10-13p10----------------13-13-13-13-15----15-13-|
|--------------------/12^^----------12^^--10---2/x-------------------------|
|--------------------------------------------------------------------------|
|--------------------------------------------------------------------------|
|--------------------------------------------------------------------------|

|----16-------------16-------------16-------------16-------------16--------|
|15-----15-15-13-15----15-15-13-15----15-15-13-15----15-15-13-15-----15-13-|
|--------------------------------------------------------------------------|
|--------------------------------------------------------------------------|
|--------------------------------------------------------------------------|
|--------------------------------------------------------------------------|

|--------------------------------------------------------------------------|
|15--13-15-12--12-12--12---------------------------------------------------|
|-------------------------0-12^^--12^^--12^^b--12^^b--12^^^r--12^^^r--12^^-|
|--------------------------------------------------------------------------|
|--------------------------------------------------------------------------|
|--------------------------------------------------------------------------|
 TP               TP  
                                                  wah off

|----------------------------------------------------------|
|10h13p10--------------------------------------------------|
|---------12^^--10----------10---------10^^r-------7^^r----| end of
|-------------------10------12-----------------------------| Solo
|----------------------------------------------------------|
|----------------------------------------------------------|
                            vol.       vol.
                            swell      swell


gtr 1

|-----------|------------------------------|-------------------------------|
|-----------|------------------------------|-------------------------------|
|-----------|8\7-7--7--7-7-8\7-7-7---7-7-7-|8\7-7--7--7-7-8\7-7-10---------|
|0----------|8\7-7--7--7-7-8\7-7-7---7-7-7-|8\7-7--7--7-7-8\7-7-10---0-1-3-|
|0----------|6\5-5--5--5-5-6\5-5-5---5-5-5-|6\5-5--5--5-5-6\5-5--8---0-1-3-|
|0----------|------------------------------|-------------------------0-1-3-|


gtr 2

|-----------|------------------------------|-------------------------------|
|15---------|------------------------------|-------------------------------|
|-----------|------------------------------|-------------------------------|
|-----------|------------------------------|-------------------------------|
|-----------|------------------------------|-------------------------------|
|-----------|------------------------------|-------------------------------|



Chorus 3     gtr 1

 /-------------------------------3x------------------------------\

|-------------------------------|---------------------------------|
|-------------------------------|---------------------------------|
|--------7--7-7-8\7-7-7--7-7-7--|8\7-7--7--7-7-8\7-7-10-----------|
|1-0-0---7--7-7-8\7-7-7--7-7-7--|8\7-7--7--7-7-8\7-7-10---0-1-3---|
|1-0-0---5--5-5-6\5-5-5--5-5-5--|6\5-5--5--5-5-6\5-5--8---0-1-3---|
|1-0-0--------------------------|-------------------------0-1-3---|


gtr 2

|17----------------------------------------------------------------|
|------------------------------------------------------------------|
|------------------------------------------------------------------|
|------------------------------------------------------------------|
|------------------------------------------------------------------|
|------------------------------------------------------------------|
 vol.
 swell


Outro     gtr 2   w/ wah

 /--------4x--------\ /-------------------8x-------------------\

|-----13--------13---|---------------------22----22----22----22-|
|12---12---12---12---|21-21-21-21-21-21-21----21----21----21----|
|--------------------|------------------------------------------|
|--------------------|------------------------------------------|
|--------------------|------------------------------------------|
|--------------------|------------------------------------------|
 TP---------------|

 /---------------8x---------------\

|---------------------22----22-----|
|21-21-21-21-21-21-21----21--------|
|----------------------------------|
|----------------------------------|
|----------------------------------|
|----------------------------------|



Tab Legend
-----------

/              slide up
\              slide down
h              hammer on
p              pull off
x              muted string
vol. swell     volume swell
TP             tremolo picking
^^             bend full step
^              bend half step
^^^^^          bend two full steps and a half
^^b            bend full step and a quarter
^^^            bend full step and a half
r              release



12. Voodoo
----------

half step down
(Eb Ab Db Gb Bb Eb)



Intro   gtrs 1 & 2

                   /-------4x--------\

|-----------------|-------------------|
|-----------------|-------------------|
|-----------------|--11--11/12\11-----|
|----singing------|--11--11/12\11-----|
|----and-stuff----|---9---9/10\9------|
|-----------------|-------------------|



Verse 1

 /-------4x--------\

|-------------------|-----------------------------|
|-------------------|-----------------------------|
|--11--11/12\11-----|9---------------------11-----|
|--11--11/12\11-----|9---9--9--9--9--9--9--11-----|
|---9---9/10\9------|7---7--7--7--7--7--7---9-----|
|-------------------|-----------------------------|
                         PM--------------|


Chorus 1

|---------------|-------------|--------------|--------------|
|---------------|-------------|--------------|--------------|
|---------------|-------------|--------------|--------------|
|4--4-4-4-4--2--|2--4-4--4-4--|4--4-4--4--7--|7--6--6/7\6\--|
|4--4-4-4-4--2--|2--4-4--4-4--|4--4-4--4--7--|7--6--6/7\6\--|
|2--2-2-2-2--0--|0--2-2--2-2--|2--2-2--2--5--|5--4--4/5\4\--|

|----------------|-------------|--------------|----------|
|----------------|-------------|--------------|----------|
|----------------|-------------|--------------|----------|
|2--4-4-4-4-4--2-|2--4-4--4-4--|4--4-4--4--2--|-4--4-----|
|2--4-4-4-4-4--2-|2--4-4--4-4--|4--4-4--4--2--|-4--4-----|
|0--2-2-2-2-2--0-|0--2-2--2-2--|2--2-2--2--0--|-2--2-----|



Interlude

 /-------4x--------\

|-------------------|
|-------------------|
|--11--11/12\11-----|
|--11--11/12\11-----|
|---9---9/10\9------|
|-------------------|



Verse 2

 /-------4x--------\

|-------------------|-----------------------------|
|-------------------|-----------------------------|
|--11--11/12\11-----|9---------------------11-----|
|--11--11/12\11-----|9---9--9--9--9--9--9--11-----|
|---9---9/10\9------|7---7--7--7--7--7--7---9-----|
|-------------------|-----------------------------|
                         PM--------------|


Chorus 2

|---------------|-------------|--------------|--------------|
|---------------|-------------|--------------|--------------|
|---------------|-------------|--------------|--------------|
|4--4-4-4-4--2--|2--4-4--4-4--|4--4-4--4--7--|7--6--6/7\6\--|
|4--4-4-4-4--2--|2--4-4--4-4--|4--4-4--4--7--|7--6--6/7\6\--|
|2--2-2-2-2--0--|0--2-2--2-2--|2--2-2--2--5--|5--4--4/5\4\--|

|----------------|-------------|--------------|--------------|
|----------------|-------------|--------------|--------------|
|----------------|-------------|--------------|--------------|
|2--4-4-4-4-4--2-|2--4-4--4-4--|4--4-4--4--7--|-7------------|
|2--4-4-4-4-4--2-|2--4-4--4-4--|4--4-4--4--7--|-7------------|
|0--2-2-2-2-2--0-|0--2-2--2-2--|2--2-2--2--5--|-5--4-4-5-4-0-|

|---------------|-------------|--------------|--------------|
|---------------|-------------|--------------|--------------|
|---------------|-------------|--------------|--------------|
|4--4-4-4-4--2--|2--4-4--4-4--|4--4-4--4--7--|7--6--6/7\6\--|
|4--4-4-4-4--2--|2--4-4--4-4--|4--4-4--4--7--|7--6--6/7\6\--|
|2--2-2-2-2--0--|0--2-2--2-2--|2--2-2--2--5--|5--4--4/5\4\--|

|----------------|-------------|--------------|----------|
|----------------|-------------|--------------|----------|
|----------------|-------------|--------------|----------|
|2--4-4-4-4-4--2-|2--4-4--4-4--|4--4-4--4--2--|-4--4-----|
|2--4-4-4-4-4--2-|2--4-4--4-4--|4--4-4--4--2--|-4--4-----|
|0--2-2-2-2-2--0-|0--2-2--2-2--|2--2-2--2--0--|-2--2-----|



Interlude

 /-------4x--------\

|-------------------|--------------|
|-------------------|--------------|
|--11--11/12\11-----|--------------|
|--11--11/12\11-----|2-------------|
|---9---9/10\9------|2-------------|
|-------------------|0-------------|

|-------------------|--------------|
|-------------------|--------------|
|--11--11/12\11-----|--------------|
|--11--11/12\11-----|2-------------|
|---9---9/10\9------|2-------------|
|-------------------|0-------------|

|-------------------|--------------|-------------|
|-------------------|--------------|-------------|
|--11--11/12\11-----|--------------|-------------|
|--11--11/12\11-----|2-------------|14\----------|
|---9---9/10\9------|2-------------|14\----------|
|-------------------|0-------------|12\----------|



Chorus 3

|---------------|-------------|--------------|--------------|
|---------------|-------------|--------------|--------------|
|---------------|-------------|--------------|--------------|
|4--4-4-4-4--2--|2--4-4--4-4--|4--4-4--4--7--|7--6--6/7\6\--|
|4--4-4-4-4--2--|2--4-4--4-4--|4--4-4--4--7--|7--6--6/7\6\--|
|2--2-2-2-2--0--|0--2-2--2-2--|2--2-2--2--5--|5--4--4/5\4\--|

|----------------|-------------|--------------|--------------|
|----------------|-------------|--------------|--------------|
|----------------|-------------|--------------|--------------|
|2--4-4-4-4-4--2-|2--4-4--4-4--|4--4-4--4--7--|-7------------|
|2--4-4-4-4-4--2-|2--4-4--4-4--|4--4-4--4--7--|-7------------|
|0--2-2-2-2-2--0-|0--2-2--2-2--|2--2-2--2--5--|-5--4-4-5-4-0-|

|---------------|-------------|--------------|--------------|
|---------------|-------------|--------------|--------------|
|---------------|-------------|--------------|--------------|
|4--4-4-4-4--2--|2--4-4--4-4--|4--4-4--4--7--|7--6--6/7\6\--|
|4--4-4-4-4--2--|2--4-4--4-4--|4--4-4--4--7--|7--6--6/7\6\--|
|2--2-2-2-2--0--|0--2-2--2-2--|2--2-2--2--5--|5--4--4/5\4\--|

|----------------|-------------|--------------|----------|
|----------------|-------------|--------------|----------|
|----------------|-------------|--------------|----------|
|2--4-4-4-4-4--2-|2--4-4--4-4--|4--4-4--4--2--|-4--4-----|
|2--4-4-4-4-4--2-|2--4-4--4-4--|4--4-4--4--2--|-4--4-----|
|0--2-2-2-2-2--0-|0--2-2--2-2--|2--2-2--2--0--|-2--2-----|



Outro

 /-------8x--------\

|-------------------|
|-------------------|
|--11--11/12\11-----|
|--11--11/12\11-----|
|---9---9/10\9------|
|-------------------|



Tab Legend
-----------

/        slide up
\        slide down



Well there you go everyone! it took me a littlw while to figure it out
so it might have some mistakes PLEASE RATE!!!
comments
We did not receive enough feedback on this tab! Please rate:
print report bad tab
1 2 3 4 5
4 comments total. Showing first comments.
0 reply
Ceresz wrote on July 31 2006, 01:52 pm

Great tab, must've taken you a while ;)

0 reply
Guitar_master65 wrote on July 31 2006, 11:34 pm

Yea, awesome job.

0 reply
heavenfeather wrote on August 20 2006, 11:01 am

imagine if it was regected.....

I want to post or [tab]
guest
You may want to rate the tab now too:
select rating
Please do not post tabs as comments. Select "correction" instead!