Oops, an error
Loading. Please wait.

Going Down Tab

ver2
ver2

Whole song

More versions @911Tabs.com
1,407 views 1 this week
no commentswrite comment
1 2 3 4 5
excellent!
x 2
Autoscroll
+/-
esc
set tempo
stop
Contributor
Difficulty
Tuning
intermediate
D A D G B E
WARNING: You are trying to view
                                    content from Ultimate-Guitar.com
                                    in an unauthorized application,
                                    which is prohibited.

                                    Please use an official Ultimate
                                    Guitar Tabs application for iPhone,
                                    iPad or Android to access legitimate
                                    chords, guitar, bass, and drum tabs
                                    from Ultimate-Guitar.com database.

                                    Type "ultimate guitar tabs" in Apple
                                    App Store's or Android Market's
                                    search to find the application.
Gtr I (D A D G B E) - 'Tony Rombola'
Gtr II (D A D G B E) - 'Tony Rombola'
Gtr III (D A D G B E) - 'Tony Rombola'


 Intro
  Q=148
                              N.C.
 1/4  4/4
  Gtr I
  Q    Wx3          H    Q  E E   +E  E E E E E E E
|----|------------|-------------|-------------------|
|----|------------|-------------|-------------------|
|----|------------|-------------|-------------------|
|----|------------|-------------|-------------------|
|----|------------|-------------|-------3-5-3-------|
|----|------------|-----------0-|-(0)-5-------5-3-0-|


                                                          Cmaj7sus4
  Gtr I
  +E  E E E E E E E   +E  E E E E E E E   +E  E E E E E E  E
|-------------------|-------------------|--------------------||
|-------------------|-------------------|--------------------||
|-------------------|-------------------|--------------------||
|-------------------|-------------------|--------------------||
|-------3-5-3-------|-------3-5-3-------|-------3-5-3--------||
|-(0)-5-------5-3-0-|-(0)-5-------5-3-0-|-(0)-5-------5-3--0-||
|
| Gtr II
|  W                   W                   H        Q   E  E
|-------------------|-------------------|--------------------||
|-------------------|-------------------|-----------------12-||
|-------------------|-------------------|-----------------10-||
|-------------------|-------------------|-----------------10-||
|-------------------|-------------------|--------------------||
|-------------------|-------------------|--------------------||


   Verse
                                                              Cmaj7sus4
    Gtr II
                            ~~~~~~~~~~~~~
     +W            +H      +H        +Q   Q  H      H    Q  E  E
||--------------|-----------------|---------------|---------------|
||o-(12)--------|-(12)----(12)----|-(12)----------|-----------12--|
||--(10)--------|-(10)----(10)----|-(10)----------|-----------10--|
||--(10)--------|-(10)----(10)----|-(10)----------|-----------10--|
||o-------------|-----------------|---------------|---------------|
||--------------|-----------------|---------------|---------------|


                          ~~~~~~~~~~~~~
   +W            +H      +H        +Q   Q  H      H    Q  E  E
|-------------|-----------------|---------------|--------------|
|-(12)--------|-(12)----(12)----|-(12)----------|-----------12-|
|-(10)--------|-(10)----(10)----|-(10)----------|-----------10-|
|-(10)--------|-(10)----(10)----|-(10)----------|-----------10-|
|-------------|-----------------|---------------|--------------|
|-------------|-----------------|---------------|--------------|


                          ~~~~~~~~~~~~~
   +W            +H      +H        +Q   Q  H      H    Q  E  E
|-------------|-----------------|---------------|--------------|
|-(12)--------|-(12)----(12)----|-(12)----------|-----------12-|
|-(10)--------|-(10)----(10)----|-(10)----------|-----------10-|
|-(10)--------|-(10)----(10)----|-(10)----------|-----------10-|
|-------------|-----------------|---------------|--------------|
|-------------|-----------------|---------------|--------------|


  1.
  Gtr II
                          ~~~~~~~~~~~~~
   +W            +H      +H        +Q   Q  H      H    Q  E  E
|-------------|-----------------|---------------|--------------||
|-(12)--------|-(12)----(12)----|-(12)----------|-----------12-||
|-(10)--------|-(10)----(10)----|-(10)----------|-----------10-||
|-(10)--------|-(10)----(10)----|-(10)----------|-----------10-||
|-------------|-----------------|---------------|--------------||
|-------------|-----------------|---------------|--------------||
|
| Gtr I
|   W             W                 W             H    Q  E  E
|-------------|-----------------|---------------|--------------||
|-------------|-----------------|---------------|--------------||
|-------------|-----------------|---------------|--------------||
|-------------|-----------------|---------------|--------------||
|-------------|-----------------|---------------|--------------||
|-------------|-----------------|---------------|------------0-||


                ~~~~                     ~~~~                     ~~~~
   E   Q.      +H           E   Q.      +H           E   Q.      +H
|------------------------|------------------------|------------------------|
|-----12------(12)-------|-----12------(12)-------|-----12------(12)-------|
|-----10------(10)-------|-----10------(10)-------|-----10------(10)-------|
|-----10------(10)-------|-----10------(10)-------|-----10------(10)-------|
|------------------------|------------------------|------------------------|
|------------------------|------------------------|------------------------|
|
| +E   E  E E   E  E E E   +E   E  E E   E  E E E   +E   E  E E   E  E E E
|------------------------|------------------------|------------------------|
|------------------------|------------------------|------------------------|
|------------------------|------------------------|------------------------|
|------------------------|------------------------|------------------------|
|---------3-5---3--------|---------3-5---3--------|---------3-5---3--------|
|-(0)--5-----------5-3-0-|-(0)--5-----------5-3-0-|-(0)--5-----------5-3-0-|


                           2.
              ~~~~                   ~~~~~~~~~~~~~~~~
  E  Q.      +Q.      E      +Q.    +H      E    +H      +Q    Q
|------------------------||-------------------|--------------------||
|---12------(12)-----12-o||-(12)---(12)----12-|-(12)----(12)\------||
|---10------(10)-----10--||-(10)---(10)----10-|-(10)----(10)\------||
|---10------(10)-----10--||-(10)---(10)----10-|-(10)----(10)\------||
|-----------------------o||-------------------|--------------------||
|------------------------||-------------------|--------------------||
|
| E  E  E E   E  E q          W                   H       Q    E E
|------------------------||-------------------|--------------------||
|-----------------------o||-------------------|--------------------||
|------------------------||-------------------|--------------------||
|------------------------||-------------------|--------------------||
|-------3-5---3---------o||-------------------|--------------------||
|-0--5-----------5-3-----||-------------------|------------------0-||


 Interlude
  N.C.
  Gtr I
  +E  E E E E E E E   +E  E E E E E E E
|-------------------|-------------------|
|-------------------|-------------------|
|-------------------|-------------------|
|-------------------|-------------------|
|-------3-5-3-------|-------3-5-3-------|
|-(0)-5-------5-3-0-|-(0)-5-------5-3-0-|


                                      D5
  +E  E E E E E E E   +E  E E E E E E E
|-------------------|-------------------||
|-------------------|-------------------||
|-------------------|-----------------7-||
|-------------------|-----------------7-||
|-------3-5-3-------|-------3-5-3-----5-||
|-(0)-5-------5-3-0-|-(0)-5-------5-3---||


 Chorus
                 C5                 B5                 Bb5
  Gtrs I, III
  +E  E Q  E E E E   +E  E Q  E E E E   +E  E Q  E E E E
|------------------|------------------|------------------|
|------------------|------------------|------------------|
|-(7)---7----7---5-|-(5)---5----5---4-|-(4)---4----4---3-|
|-(7)---7----7---5-|-(5)---5----5---4-|-(4)---4----4---3-|
|-(5)-5-5----5---3-|-(3)-3-3----3---2-|-(2)-2-2----2---1-|
|----------7---7---|----------5---5---|----------4---4---|


            N.C.                                           D5
  +E  E E E  E E E E   +E  E E E E E E E   +E  E E E E E E E
|--------------------|-------------------|-------------------|
|--------------------|-------------------|-------------------|
|-(3)---3------------|-------------------|-----------------7-|
|-(3)---3------------|-------------------|-----------------7-|
|-(1)-1-1------3-----|-------3-5-3-------|-------3-5-3-----5-|
|---------x-/5---5-0-|-(0)-5-------5-3-0-|-(0)-5-------5-3---|


                 F5                      E5                Eb5
  +E  E Q  E E E  E    +E   E  Q  E  E E E   +Q   Q  E E E E
|-------------------|----------------------|-----------------|
|-------------------|----------------------|-----------------|
|-(7)---7----7---10-|-(10)----10----10---9-|-(9)--9----9---8-|
|-(7)---7----7---10-|-(10)-10-10----10---9-|-(9)--9----9---8-|
|-(5)---5----5----8-|--(8)--8--8-----8---7-|-(7)--7--x-7---6-|
|-----7----7---7----|-------------x----x---|---------x---9---|


           N.C.
  +Q   E E  E E E E   +E  E E E E E E E   +E  E E E E E E E
|-------------------|-------------------|-------------------|
|-------------------|-------------------|-------------------|
|-(8)--8------------|-------------------|-------------------|
|-(8)--8------------|-------------------|-------------------|
|-(6)--6------3-----|-------3-5-3-------|-------3-5-3-------|
|--------x-/5---5-0-|-(0)-5-------5-3-0-|-(0)-5-------5-3-0-|


                          D5open     Cmaj7sus4
  Gtrs I, III
  +E  E E E E E E E   +E  E E E H
|-------------------|-------------------||
|-------------------|-------------------||
|-------------------|-------------------||
|-------------------|-------------------||
|-------3-5-3-------|-----0-0-----------||
|-(0)-5-------5-3-0-|-(0)-0-0-----------||
|
| Gtr II
|  W                   H        Q  E  E
|-------------------|-------------------||
|-------------------|----------------12-||
|-------------------|----------------10-||
|-------------------|----------------10-||
|-------------------|-------------------||
|-------------------|-------------------||


 Verse
  Gtr II
                          ~~~~~~~~~~~~~
   +W            +H      +H        +Q   Q  H      H    Q  E  E
|-------------|-----------------|---------------|--------------|
|-(12)--------|-(12)----(12)----|-(12)----------|-----------12-|
|-(10)--------|-(10)----(10)----|-(10)----------|-----------10-|
|-(10)--------|-(10)----(10)----|-(10)----------|-----------10-|
|-------------|-----------------|---------------|--------------|
|-------------|-----------------|---------------|--------------|


                          ~~~~~~~~~~~~~
   +W            +H      +H        +Q   Q  H      H    Q  E  E
|-------------|-----------------|---------------|--------------|
|-(12)--------|-(12)----(12)----|-(12)----------|-----------12-|
|-(10)--------|-(10)----(10)----|-(10)----------|-----------10-|
|-(10)--------|-(10)----(10)----|-(10)----------|-----------10-|
|-------------|-----------------|---------------|--------------|
|-------------|-----------------|---------------|--------------|


                                                                D5
  Gtr II
                          ~~~~~~~~~~~~~
   +W            +H      +H        +Q   Q  H       H      Q   E  E
|-------------|-----------------|---------------|------------------||
|-(12)--------|-(12)----(12)----|-(12)----------|---------------12-||
|-(10)--------|-(10)----(10)----|-(10)----------|---------------10-||
|-(10)--------|-(10)----(10)----|-(10)----------|---------------10-||
|-------------|-----------------|---------------|------------------||
|-------------|-----------------|---------------|------------------||
|
| Gtr I
|                                          <
|   W             W                 H      H      +H     +Q.     E
|-------------|-----------------|---------------|------------------||
|-------------|-----------------|---------------|------------------||
|-------------|-----------------|---------------|----------------7-||
|-------------|-----------------|----------3----|-(3)----(3)-----7-||
|-------------|-----------------|----------3----|-(3)----(3)-----5-||
|-------------|-----------------|---------------|------------------||


 Chorus
                 C5                 B5                 Bb5
  Gtrs I, III
  +E  E Q  E E E E   +E  E Q  E E E E   +E  E Q  E E E E
|------------------|------------------|------------------|
|------------------|------------------|------------------|
|-(7)---7----7---5-|-(5)---5----5---4-|-(4)---4----4---3-|
|-(7)---7----7---5-|-(5)---5----5---4-|-(4)---4----4---3-|
|-(5)-5-5----5---3-|-(3)-3-3----3---2-|-(2)-2-2----2---1-|
|----------7---7---|----------5---5---|----------4---4---|


            N.C.                                           D5
  +E  E E E  E E E E   +E  E E E E E E E   +E  E E E E E E E
|--------------------|-------------------|-------------------|
|--------------------|-------------------|-------------------|
|-(3)---3------------|-------------------|-----------------7-|
|-(3)---3------------|-------------------|-----------------7-|
|-(1)-1-1------3-----|-------3-5-3-------|-------3-5-3-----5-|
|---------x-/5---5-0-|-(0)-5-------5-3-0-|-(0)-5-------5-3---|


                                     F5                      E5
  +E  E E E E E E E   +E  E Q  E E E  E    +E   E  Q  E  E E E
|-------------------|-------------------|----------------------|
|-------------------|-------------------|----------------------|
|-(7)-------------7-|-(7)---7----7---10-|-(10)----10----10---9-|
|-(7)-------------7-|-(7)---7----7---10-|-(10)-10-10----10---9-|
|-(5)---3-5-3-----5-|-(5)---5----5----8-|--(8)--8--8-----8---7-|
|-----5-------5-3---|-----7----7---7----|-------------x----x---|


                Eb5          N.C.
  +Q   Q  E E E E   +Q   E E  E E E E   +E  E E E E E E E   +E  E E E E E E E
|-----------------|-------------------|-------------------|-------------------||
|-----------------|-------------------|-------------------|-------------------||
|-(9)--9----9---8-|-(8)--8------------|-------------------|-------------------||
|-(9)--9----9---8-|-(8)--8------------|-------------------|-------------------||
|-(7)--7--x-7---6-|-(6)--6------3-----|-------3-5-3-------|-------3-5-3-------||
|---------x---9---|--------x-/5---5-0-|-(0)-5-------5-3-0-|-(0)-5-------5-3-0-||


  +E  E E E E E E E   +E  E E E E E E E   +E  E E E E E E E
|-------------------|-------------------|-------------------|
|-------------------|-------------------|-------------------|
|-------------------|-------------------|-------------------|
|-------------------|-------------------|-------------------|
|-------3-5-3-------|-------3-5-3-------|-------3-5-3-------|
|-(0)-5-------5-3-0-|-(0)-5-------5-3-0-|-(0)-5-------5-3-0-|


                                              D5open             D5
                                                          2/4
  Gtrs I, III
  +E  E E E E E E E   +E  E E E E E E E   +E  Q.   q  Q    Q   E E
|-------------------|-------------------|----------------|----------|
|-------------------|-------------------|----------------|----------|
|-------------------|-------------------|----------------|-------7--|
|-------------------|-------------------|----------------|-------7--|
|-------3-5-3-------|-------3-5-3-------|-----0----0-----|-------5--|
|-(0)-5-------5-3-0-|-(0)-5-------5-3-0-|-(0)-0----0-----|----------|
|
| Gtr II
|  W                   W                   W               Q   Q
|-------------------|-------------------|----------------|----------|
|-------------------|-------------------|----------------|-----9----|
|-------------------|-------------------|----------------|----10----|
|-------------------|-------------------|----------------|----------|
|-------------------|-------------------|----------------|----------|
|-------------------|-------------------|----------------|----------|


   Guitar Solo
                                             C5
   4/4
    Gtr I
     +Q   Q    E  E E  E    +Q   Q    E  E E  E
||-----------------------|----------------------|
||o----------------------|----------------------|
||---(7)--7-------7----7-|--(7)--7-------7----5-|
||---(7)--7-------7----7-|--(7)--7-------7----5-|
||o--(5)--5-------5----5-|--(5)--5-------5----3-|
||-------------7----7----|------------7----7----|
|
|   Gtr II
|    +H       +Q.      E    +H       +Q.      E
||-----------------------|----------------------|
||o--(9)------(9)------9-|--(9)------(9)-----10-|
||--(10)-----(10)-----10-|-(10)-----(10)-----10-|
||-----------------------|----------------------|
||o----------------------|----------------------|
||-----------------------|----------------------|


                       1.
                   B5                         D5
   +Q   Q   E  E E  E    +Q     E  E   E  E E  E
|---------------------|----------------------------||
|---------------------|---------------------------o||
|--(5)--5------5----4-|--(4)----4--------------7---||
|--(5)--5------5----4-|--(4)----4--------------7---||
|--(3)--3------3----2-|--(2)----2---------3----5--o||
|-----------5----5----|------------x--/5----5------||
|
|  +Q   Q  +Q.      E    +Q    +Q     +Q.      E
|---------------------|----------------------------||
|-(10)--8--(8)-----10-|-(10)-------------------9--o||
|-(10)-------------10-|-(10)--(10)---(10)-----10---||
|---------------------|----------------------------||
|---------------------|---------------------------o||
|---------------------|----------------------------||


  2.
              N.C.   D5                        F5
   +Q    E  E  E E E E   +Q      Q    E   E  E  E
|----------------------|--------------------------|
|----------------------|--------------------------|
|--(7)---4-----------7-|-(7)-----7-------------10-|
|--(7)---4-----------7-|-(7)-----7-------------10-|
|--(5)---2-------3---5-|-(5)-----5--------5-----8-|
|-----------x-/5---5---|--------------7------7----|
|
|  +Q    H.               E   Q.     +E   Q.
|----------------------|--------------------------|
|--(9)-----------------|--x-----------------------|
|-(10)--10-------------|--x--10-----(10)-10-------|
|----------------------|-----10-----(10)-10-------|
|----------------------|--------------------------|
|----------------------|--------------------------|


                            E5
   +Q      Q      E   E   E E
|-----------------------------|
|-----------------------------|
|-(10)----10---------10-----9-|
|-(10)----10---------10-----9-|
|--(8)-----8----------8-----7-|
|----------------10------10---|
|
|                     ~~~
|   E   Q     E  +E   Q.
|-----------------------------|
|---x-------------------------|
|---x--10----10-(10)----------|
|------12----12-(12)-12\------|
|-----------------------------|
|-----------------------------|


                   Eb5
  +Q    Q   E  E E E   +Q   E E  E  E E E   +E  E E E E E E E
|--------------------|--------------------|-------------------|
|--------------------|--------------------|-------------------|
|-(9)---9------9---8-|-(8)--8-------------|-------------------|
|-(9)---9------9---8-|-(8)--8-------------|-------------------|
|-(7)---7------7---6-|-(6)--6-------3-----|-------3-5-3-------|
|-----------9----7---|--------x--5----5-0-|-(0)-5-------5-3-0-|
|
|           ~~~~~~~~~~~~~~~                  ~~~
|  E  E E E Q.     E   +Q   E E +H          +W
|--------------------|--------------------|-------------------|
|--------------------|--------------------|-------------------|
|--x---------------7-|-(7)--7-7-(7)-------|-(7)---------------|
|-----x-x-x-5------5-|-(5)----------------|-------------------|
|--------------------|--------------------|-------------------|
|--------------------|--------------------|-------------------|


                                                          D5
   E  E E E E E E E   +E  E E E E E E E   +E  E E E E E E E
|-------------------|-------------------|-------------------||
|-------------------|-------------------|-------------------||
|-------------------|-------------------|-----------------7-||
|-------------------|-------------------|-----------------7-||
|-------3-5-3-------|-------3-5-3-------|-------3-5-3-----5-||
|--0--5-------5-3-0-|-(0)-5-------5-3-0-|-(0)-5-------5-3---||
|
|  ~~~
| +W                   W                   W
|-------------------|-------------------|-------------------||
|-------------------|-------------------|-------------------||
|-(7)---------------|-------------------|-------------------||
|-------------------|-------------------|-------------------||
|-------------------|-------------------|-------------------||
|-------------------|-------------------|-------------------||


 Outro
                 C5                B5                 Bb5
  Gtrs I, III
  +E  E Q  E E E E   +Q   Q  E E E E   +E  E Q  E E E E
|------------------|-----------------|------------------|
|------------------|-----------------|------------------|
|-(7)---7----7---5-|-(5)--5----5---4-|-(4)---4----4---3-|
|-(7)---7----7---5-|-(5)--5----5---4-|-(4)---4----4---3-|
|-(5)-5-5----5---3-|-(3)--3----3---2-|-(2)-2-2----2---1-|
|----------7---7---|---------5---5---|----------4---4---|


                   D5                 C5                B5
  +E  E E E  E E E E   +E  E Q  E E E E   +Q   Q  E E E E
|--------------------|------------------|-----------------|
|--------------------|------------------|-----------------|
|-(3)---3----------7-|-(7)---7----7---5-|-(5)--5----5---4-|
|-(3)---3----------7-|-(7)---7----7---5-|-(5)--5----5---4-|
|-(1)-1-1------3---5-|-(5)-5-5----5---3-|-(3)--3----3---2-|
|---------x-/5---5---|----------7---7---|---------5---5---|


                 Bb5                  D5                 F5
  +E  E Q  E E E E   +E  E E E  E E E E   +E  E Q  E E E  E
|------------------|--------------------|-------------------|
|------------------|--------------------|-------------------|
|-(4)---4----4---3-|-(3)---3----------7-|-(7)---7----7---10-|
|-(4)---4----4---3-|-(3)---3----------7-|-(7)---7----7---10-|
|-(2)-2-2----2---1-|-(1)-1-1------3---5-|-(5)-5-5----5----8-|
|----------4---4---|---------x-/5---5---|----------7---7----|


                      E5                 Eb5
   +E  E  Q   E  E  E E   +E  E Q  E E E E   +E  E E E  E E E E
|-----------------------|------------------|--------------------|
|-----------------------|------------------|--------------------|
|-(10)---10-----10----9-|-(9)---9----9---8-|-(8)---8------------|
|-(10)---10-----10----9-|-(9)---9----9---8-|-(8)---8------------|
|--(8)-8--8------8----7-|-(7)-7-7----7---6-|-(6)-6-6------3-----|
|------------10----10---|----------9---9---|---------x-/5---x-0-|


                                                          D5open
  +E  E E E E E E E   +E  E E E E E E E   +E  E E E E E E E   +E  E E E H
|-------------------|-------------------|-------------------|----------------*|
|-------------------|-------------------|-------------------|----------------*|
|-------------------|-------------------|-------------------|----------------*|
|-------------------|-------------------|-------------------|----------------*|
|-------3-5-3-------|-------3-5-3-------|-------3-5-3-----0-|-(0)-0-0--------*|
|-(0)-5-------5-3-0-|-(0)-5-------5-3-0-|-(0)-5-------5-3-0-|-(0)-0-0--------*|




--------------------------------------------------------------------------------


Duration Legend
---------------
W - whole; H - half; Q - quarter; E - 8th; S - 16th; T - 32nd; X - 64th; a - acciaccatura
+ - note tied to previous; . - note dotted; .. - note double dotted
Uncapitalized letters represent notes that are staccato (1/2 duration)
Irregular groupings are notated above the duration line
Duration letters will always appear directly above the note/fret number it represents the
duration for.  Duration letters with no fret number below them represent rests.  Multi-
bar rests are notated in the form Wxn, where n is the number of bars to rest for.  Low
melody durations appear below the staff

Tablature Legend
----------------
 h   - hammer-on
 p   - pull-off
 b   - bend
 pb  - pre-bend
 r   - bend release (if no number after the r, then release immediately)
 /\  - slide into or out of (from/to "nowhere")
 s   - legato slide
 S   - shift slide
 - natural harmonic
[n]  - artificial harmonic
n(n) - tapped harmonic
 ~   - vibrato
 tr  - trill
 T   - tap
 TP  - trem. picking
 PM  - palm muting
\n/  - tremolo bar dip; n = amount to dip
 \n  - tremolo bar down
 n/  - tremolo bar up
/n\  - tremolo bar inverted dip
 =   - hold bend; also acts as connecting device for hammers/pulls
 <> - volume swell (louder/softer)
 x   - on rhythm slash represents muted slash
 o   - on rhythm slash represents single note slash

Misc Legend
-----------
 |  - bar
||  - double bar
||o - repeat start
o|| - repeat end
*|  - double bar (ending)
 :  - bar (freetime)
 $  - Segno
 &  - Coda
Tempo markers -  = BPM(8/16=s8/s16), where s8 = swing 8ths, s16 = swing 16ths


comments
We did not receive enough feedback on this tab! Please rate:
1 2 3 4 5
I want to post or [tab]
guest
You may want to rate the tab now too:
select rating
Please do not post tabs as comments. Select "correction" instead!