Oops, an error
Loading. Please wait.

Iv Tab

5,390 views 6 this week
6 commentsread comments
1 2 3 4 5
excellent!
x 9
Autoscroll
+/-
esc
set tempo
stop
Contributor
Difficulty
advanced
Hey! There's an official Ultimate Guitar app which is ideal
for learning songs when you're away from computer. Get the app
WARNING: You are trying to view
                                    content from Ultimate-Guitar.com
                                    in an unauthorized application,
                                    which is prohibited.

                                    Please use an official Ultimate
                                    Guitar Tabs application for iPhone,
                                    iPad or Android to access legitimate
                                    chords, guitar, bass, and drum tabs
                                    from Ultimate-Guitar.com database.

                                    Type "ultimate guitar tabs" in Apple
                                    App Store's or Android Market's
                                    search to find the application.
LIVIN IN SIN  (LOW TO HIGH) DADGBE
                                   *=PALM MUTE      p=PULL OFF
                                   \=SLIDE DOWN     h=HAMMER ON
                                   /=SLIDE UP       ^^=hold behind
                                   ^=BEND

INTRO.dist
-----------------------------------------------|
-----------------------------------------------|
-----------------------------------------------|
-----0h3-3p2-----0h2-2p0-----------------0---0-|
---0-----------0-----------0-5p3-3p0-0h1---1---|
-0-----------0-----------0---------------------|
 * *         * *         * *

intro cont.dist
-------------------------------------------------|
-------------------------------------------------|
-------------------------------------------------|
-----0h3-3p2-----0h2-2p0-----------------0-------|
---0-----------0-----------0-5p3-3p0-0h1---(1)-/-|
-0-----------0-----------0-----------------------|
 * *         * *         * *

intro cont.dist
-----------------------------------------------------|
-----------------------------------------------------|
-----------------------------------------------------|
-----0h3-3p2-----0h2-2p0-----------------0----0------|
---0-----------0-----------0-5p3-3p0-0h1---1-(1)-/-3-|
-0-----------0-----------0---------------------------|
 * *         * *         * *

intro cont.dist
-----------------------------------------------|
-----------------------------------------------|
-----------------------------------------------|
-----0h3-3p2-----0h2-2p0-----------------0---0-|
---0-----------0-----------0-5p3-3p0-0h1---1---|
-0-----------0-----------0---------------------|
 * *         * *         * *

verse.dist
-----------------------------------------------------|
-----------------------------------------------------|
-----------------------------------------------------|
-----0h3-3p2-----0h2-2p0-----------------0----0------|
---0-----------0-----------0-5p3-3p0-0h1---1-(1)-/-3-|
-0-----------0-----------0---------------------------|
 * *         * *         * *

verse cont.dist
-----------------------------------------------------|
-----------------------------------------------------|
-----------------------------------------------------|
-----0h3-3p2-----0h2-2p0-----------------0----0------|
---0-----------0-----------0-5p3-3p0-0h1---1-(1)-/-3-|
-0-----------0-----------0---------------------------|
 * *         * *         * *

verse cont.dist
------------------------------------------------------------------------------------------|
------------------------------------------------------------------------------------------|
------------------------------------------------------------------------------------------|
-----0h3-3p2-----0h5-5-------------------0----0----------0h3-3p2-----0h2-2p0--------------|
---0-----------0-------7---0-5p3-3p0-0h1---1-(1)-/-3---0-----------0----------------------|
-0-----------0-----------0---------------------------0-----------0------------------------|
 * *         * *         * *                         * *         * *

pre-chorus dist.
-------------------------------------|
-------------------------------------|
-----------------------3-3-3-3-3-3-3-|
-3-3-3-3-3-3-3-3-3-3-3-3-3-3-3-3-3-3-|
-1-1-1-1-1-1-1-1-1-1-1-1-1-1-1-1-1-1-|
-------------------------------------|
   * * * * * * * * * *

chorus dist.
-------------------------------------------------------------------------------------------|
-------------------------------------------------------------------------------------------|
-------------------------------------------------------------------------------------------|
-------10-10-\-9-------9-9-\-7-------7-7-\-5-3-3-3-3-3-/-5-------10-10-\-9-------12-12-\-9-|
-0-0-0--8--8-\-7-0-0-0-7-7-\-5-0-0-0-5-5-\-3-1-1-1-1-1-/-3-0-0-0--8--8-\-7-0-0-0-10-10-\-7-|
-0-0-0-----------0-0-0---------0-0-0-----------------------0-0-0-----------0-0-0-----------|

chorus cont.
---------------------------------------------------------------|
---------------------------------------------------------------|
---------------------------------------------------------------|
-------7-7-\-5-3-3-3-3-3-/-5-------10-10-\-9-------7-7-\-5---3-|
-0-0-0-5-5-\-3-1-1-1-1-1-/-3-0-0-0--8--8-\-7-0-0-0-5-5-\-3---1-|
-0-0-0-----------------------0-0-0-----------0-0-0-------------|

interlude w/phaser
-------------------------------------------------------------------------------------------------------------------|
-------------------------------------------------------------------------------------------------------------------|
---------------------------9-9-\-7-7-\-5-3---3-3-/-5-------------------------5-5-/-7-7-/-9-9-/-10-10-10-10-10-/-12-|
-----0h3-3p2-----0h2-2p0---0-0-----0-----0-0---0---------0h3-3p2-----0h2-2p0-0-0-----0-----0----0--0--0--0--0------|
---0-----------0---------0-----------------------------0-----------0-----------------------------------------------|
-0-----------0-----------0---------------------------0-----------0-------------------------------------------------|
 * *         * *                                     * *         * *

verse.dist
-----------------------------------------------------|
-----------------------------------------------------|
-----------------------------------------------------|
-----0h3-3p2-----0h2-2p0-----------------0----0------|
---0-----------0-----------0-5p3-3p0-0h1---1-(1)-/-3-|
-0-----------0-----------0---------------------------|
 * *         * *         * *

verse cont.dist
-----------------------------------------------------|
-----------------------------------------------------|
-----------------------------------------------------|
-----0h3-3p2-----0h2-2p0-----------------0----0------|
---0-----------0-----------0-5p3-3p0-0h1---1-(1)-/-3-|
-0-----------0-----------0---------------------------|
 * *         * *         * *

verse cont.dist
------------------------------------------------------------------------------------------|
------------------------------------------------------------------------------------------|
------------------------------------------------------------------------------------------|
-----0h3-3p2-----0h5-5-------------------0----0----------0h3-3p2-----0h2-2p0--------------|
---0-----------0-------7---0-5p3-3p0-0h1---1-(1)-/-3---0-----------0----------------------|
-0-----------0-----------0---------------------------0-----------0------------------------|
 * *         * *         * *                         * *         * *

pre-chorus dist.
-------------------------------------|
-------------------------------------|
-----------------------3-3-3-3-3-3-3-|
-3-3-3-3-3-3-3-3-3-3-3-3-3-3-3-3-3-3-|
-1-1-1-1-1-1-1-1-1-1-1-1-1-1-1-1-1-1-|
-------------------------------------|
   * * * * * * * * * *

chorus dist.
-------------------------------------------------------------------------------------------|
-------------------------------------------------------------------------------------------|
-------------------------------------------------------------------------------------------|
-------10-10-\-9-------9-9-\-7-------7-7-\-5-3-3-3-3-3-/-5-------10-10-\-9-------12-12-\-9-|
-0-0-0--8--8-\-7-0-0-0-7-7-\-5-0-0-0-5-5-\-3-1-1-1-1-1-/-3-0-0-0--8--8-\-7-0-0-0-10-10-\-7-|
-0-0-0-----------0-0-0---------0-0-0-----------------------0-0-0-----------0-0-0-----------|

chorus cont.
---------------------------------------------------------------|
---------------------------------------------------------------|
---------------------------------------------------------------|
-------7-7-\-5-3-3-3-3-3-/-5-------10-10-\-9-------7-7-\-5---3-|
-0-0-0-5-5-\-3-1-1-1-1-1-/-3-0-0-0--8--8-\-7-0-0-0-5-5-\-3---1-|
-0-0-0-----------------------0-0-0-----------0-0-0-------------|


bridge. clean
-----------------------------------------------------------------------------------------------------|
-------------3-3-3-3-3-3-3-------------3-3-------------------------3-3-3-3-3-3-1---1-------1-----1-0-|
-------0-----2-2-0-0-2-2-0-------0-----2-2-9-9-\-7-7-\-------0-----2-2-0-0-2-0-0-0---0---0---0-----0-|
-----3---3---0-0-0-0-0-0-0-----3---3---0-0-x-x-----x-------3---3---0-0-0-0-0-0-2---------------2---0-|
---3---------0---------------3---------0---7-7-\-5-5-\---3---------0-----------3-------3-------------|
-3---------0-0-------------3---------0-0---------------3---------0-0---------------------------------|

bridge cont. clean
--------------------------------------------------------------------------------------------------------------|
-------------3-3-3-3-3-3-------------3-3-------------------------3-3-3-3-3-3--1-1-1-1-1-1-1-1-1-1-1-1-1-1-1-1-|
-------0-----2-2-0-0-2-0-------0-----2-2-9-9-\-7-7---------0-----2-2-0-0-2-0--0-0-0-0-0-0-0-0-0-0-0-0-0-0-0-0-|
-----3---3---0-0-0-0-0-0-----3---3---0-0-x-x-----x-------3---3---0-0-0-0-0-0--2-2-2-2-2-2-2-2-2-2-2-2-2-2-2-2-|
---3---------0-------------3---------0---7-7-\-5-5-\---3---------0------------3-3-3-3-3-3-3-3-3-3-3-3-3-3-3-3-|
-3---------0-0-----------3---------0-0---------------3---------0-0--------------------------------------------|

solo.w wah-wah
------------------------------------------------------------------------------------------------------------------|
-12^-12^-(12)-10-(10)^---------------------13---------------------------------------------------------------------|
-12^-12^-(12)-10-(10)^-----------------/14----12-10^----10^-10^----------------12^^-12-12-12-12-12-(12)p10-12-10--|
------------------------12-10-12-(12)\---------------12---------12-10-12-(12)\------------------------------------|
------------------------------------------------------------------------------------------------------------------|
------------------------------------------------------------------------------------------------------------------|
                                                                               -----------------------------------|

solo.w wah-wah
---------------------------------------------------------13--------------13----13-15^^-15-15-(15)p13-15-13-15-15^-13--|
-------------13^-(13)^-13^-13^-(13)-10---15-(15)\-/13-15----15-(15)\-/15----15----------------------------------------|
-10h12-10------------------------------0------------------------------------------------------------------------------|
----------12----------------------------------------------------------------------------------------------------------|
----------------------------------------------------------------------------------------------------------------------|
----------------------------------------------------------------------------------------------------------------------|
                                                                                  ------------------------------------|

solo.w wah-wah
-(13)^--------------------10---------------------------------------------------------------|
-------15-13-15-(15)\-13^----13p10-------------------------------------------13-13-13------|
-------15--------------------------13p10----13-12p10-12p10----10h12-10-------12-12-12------|
-----------------------------------------12----------------12----------12-10-10-10-10-10-\-|
-------------------------------------------------------------------------------------------|
-------------------------------------------------------------------------------------------|

outro chorus (dist)
-----------------------------------------------------------|
-----------------------------------------------------------|
-----------------------------------------------------------|
-------10-10-\-9-------9-9-\-7-------7-7-\-5-3-3-3-3-3-/-5-|
-0-0-0--8--8-\-7-0-0-0-7-7-\-5-0-0-0-5-5-\-3-1-1-1-1-1-/-3-|
-0-0-0-----------0-0-0---------0-0-0-----------------------|

outro chorus (dist)
-----------------------------------------------------------|
-----------------------------------------------------------|
-----------------------------------------------------------|
-------10-10-\-9-------9-9-\-7-------7-7-\-5-3-3-3-3-3-/-5-|
-0-0-0--8--8-\-7-0-0-0-7-7-\-5-0-0-0-5-5-\-3-1-1-1-1-1-/-3-|
-0-0-0-----------0-0-0---------0-0-0-----------------------|

outro chorus cont (dist)
-----------------------------------------------------------|
-----------------------------------------------------------|
-----------------------------------------------------------|
-------10-10-\-9-------9-9-\-7-------7-7-\-5-3-3-3-3-3-/-5-|
-0-0-0--8--8-\-7-0-0-0-7-7-\-5-0-0-0-5-5-\-3-1-1-1-1-1-/-3-|
-0-0-0-----------0-0-0---------0-0-0-----------------------|

outro chorus cont (dist)
-----------------------------------------------------------|
-----------------------------------------------------------|
-----------------------------------------------------------|
-------10-10-\-9-------9-9-\-7-------7-7-\-5-3-3-3-3-3-/-5-|
-0-0-0--8--8-\-7-0-0-0-7-7-\-5-0-0-0-5-5-\-3-1-1-1-1-1-/-3-|
-0-0-0-----------0-0-0---------0-0-0-----------------------|

outro chorus cont (dist)
-----------------------------------------------------------|
-----------------------------------------------------------|
-----------------------------------------------------------|
-------10-10-\-9-------9-9-\-7-------7-7-\-5-3-3-3-3-3-/-5-|
-0-0-0--8--8-\-7-0-0-0-7-7-\-5-0-0-0-5-5-\-3-1-1-1-1-1-/-3-|
-0-0-0-----------0-0-0---------0-0-0-----------------------|

outro 2 (dist)
---
-1-
-3-
-3-
-1-
---
########################################################################################################################
speak (low to high) CGCFAD         *=palm mute
                                   T=trem pick
                                   ^=bend
intro (dist) 3x
---------------------------------|
---------------------------------|
---------------------------------|
-3p2-2-2-----3p2---5-x-3-x-2-x-2-|
-3p2-2-2-----3p2---5-x-3-x-2-x-2-|
-3p2-2-2-2-2-3p2-2-5-x-3-x-2-x-2-|
         * *     *

intro 2 (dist)
-------------|
-------------|
---------2-2-|
-3p2-2-2-0-0-|
-3p2-2-2-0-0-|
-3p2-2-2-0-0-|

intro (dist) 3x
---------------------------------|
---------------------------------|
---------------------------------|
-3p2-2-2-----3p2---5-x-3-x-2-x-2-|
-3p2-2-2-----3p2---5-x-3-x-2-x-2-|
-3p2-2-2-2-2-3p2-2-5-x-3-x-2-x-2-|
         * *     *

intro 2 (dist)
-------------|
-------------|
---------2-2-|
-3p2-2-2-0-0-|
-3p2-2-2-0-0-|
-3p2-2-2-0-0-|

verse (dist)
---------------------------------|
---------------------------------|
---------------------------------|
-3p2-2-2-----3p2---5-x-3-x-2-x-2-|
-3p2-2-2-----3p2---5-x-3-x-2-x-2-|
-3p2-2-2-2-2-3p2-2-5-x-3-x-2-x-2-|
 * * * * * * * * * * * * * * * *

verse cont (dist)
-------------------------------------|
-------------------------------------|
-------------------------------------|
-3p2-2-2-----3p2---5-x-3-x-2-x-0-----|
-3p2-2-2-----3p2---5-x-3-x-2-x-0-----|
-3p2-2-2-2-2-3p2-2-5-x-3-x-2-x-0-0-0-|
 * * * * * * * * * * * * * * * * * *

verse cont (dist)
---------------------------------|
---------------------------------|
---------------------------------|
-3p2-2-2-----3p2---5-x-3-x-2-x-2-|
-3p2-2-2-----3p2---5-x-3-x-2-x-2-|
-3p2-2-2-2-2-3p2-2-5-x-3-x-2-x-2-|
 * * * * * * * * * * * * * * * *

verse cont (dist)
---------------------------------|
---------------------------------|
---------------------------------|
-3p2-2-2-----3p2---0---0---0-----|
-3p2-2-2-----3p2---0---0---0-----|
-3p2-2-2-2-2-3p2-2-0-0-0-0-0-0-0-|
 * * * * * * * * * * * * * * * *

verse cont (dist)
---------------------------------|
---------------------------------|
---------------------------------|
-3p2-2-2-----3p2---5-x-3-x-2-x-2-|
-3p2-2-2-----3p2---5-x-3-x-2-x-2-|
-3p2-2-2-2-2-3p2-2-5-x-3-x-2-x-2-|
 * * * * * * * * * * * * * * * *

verse cont (dist)
-------------------------------------|
-------------------------------------|
-------------------------------------|
-3p2-2-2-----3p2---5-x-3-x-2-x-0-----|
-3p2-2-2-----3p2---5-x-3-x-2-x-0-----|
-3p2-2-2-2-2-3p2-2-5-x-3-x-2-x-0-0-0-|
 * * * * * * * * * * * * * * * * * *

verse cont (dist)
-----------------------------------------------|
-----------------------------------------------|
---------------------------------2-2-2-5-5-----|
-3p2-2-2-----3p2---5-x-3-x-2-x-0-0-0-0-3-3-0-0-|
-3p2-2-2-----3p2---5-x-3-x-2-x-0-0-0-0-3-3-0-0-|
-3p2-2-2-2-2-3p2-2-5-x-3-x-2-x-0-0-0-0-3-3-0-0-|
 * * * * * * * * * * * * * * *

chorus (dist)
----------------------------------------------------------|
----------------------------------------------------------|
----------------------------------------------------------|
-9-9-9-9-9-9-10-10-10-10-10-9-9-7-7-7-7-7-7-5-5-5-5-5-7-7-|
-7-7-7-7-7-7--7--7--7--7--7-7-7-5-5-5-5-5-5-3-3-3-3-3-5-5-|
----------------------------------------------------------|

chorus cont
----------------------------------------------------------|
----------------------------------------------------------|
----------------------------------------------------------|
-9-9-9-9-9-9-10-10-10-10-10-9-9-7-7-7-7-7-7-5-5-5-5-5-7-7-|
-7-7-7-7-7-7--7--7--7--7--7-7-7-5-5-5-5-5-5-3-3-3-3-3-5-5-|
----------------------------------------------------------|

chorus cont (dist)
----------------------------------------------------------|
----------------------------------------------------------|
----------------------------------------------------------|
-9-9-9-9-9-9-10-10-10-10-10-9-9-7-7-7-7-7-7-5-5-5-5-5-7-7-|
-7-7-7-7-7-7--7--7--7--7--7-7-7-5-5-5-5-5-5-3-3-3-3-3-5-5-|
----------------------------------------------------------|

chorus cont
----------------------------------------------------------|
----------------------------------------------------------|
----------------------------------------------------------|
-9-9-9-9-9-9-10-10-10-10-10-9-9-7-7-7-7-7-7-5-5-5-5-5-7-7-|
-7-7-7-7-7-7--7--7--7--7--7-7-7-5-5-5-5-5-5-3-3-3-3-3-5-5-|
----------------------------------------------------------|

intro (dist) 3x
---------------------------------|
---------------------------------|
---------------------------------|
-3p2-2-2-----3p2---5-x-3-x-2-x-2-|
-3p2-2-2-----3p2---5-x-3-x-2-x-2-|
-3p2-2-2-2-2-3p2-2-5-x-3-x-2-x-2-|
         * *     *

chorus cont (dist)
---------------------|
---------------------|
---------------------|
-3-2-2-2-3-2-5-3-2-0-|
-3-2-2-2-3-2-5-3-2-0-|
-3-2-2-2-3-2-5-3-2-0-|
 * * * * * * * * * *

verse (dist)
---------------------------------|
---------------------------------|
---------------------------------|
-3p2-2-2-----3p2---5-x-3-x-2-x-2-|
-3p2-2-2-----3p2---5-x-3-x-2-x-2-|
-3p2-2-2-2-2-3p2-2-5-x-3-x-2-x-2-|
 * * * * * * * * * * * * * * * *

verse cont (dist)
-------------------------------------|
-------------------------------------|
-------------------------------------|
-3p2-2-2-----3p2---5-x-3-x-2-x-0-----|
-3p2-2-2-----3p2---5-x-3-x-2-x-0-----|
-3p2-2-2-2-2-3p2-2-5-x-3-x-2-x-0-0-0-|
 * * * * * * * * * * * * * * * * * *

verse cont (dist)
---------------------------------|
---------------------------------|
---------------------------------|
-3p2-2-2-----3p2---5-x-3-x-2-x-2-|
-3p2-2-2-----3p2---5-x-3-x-2-x-2-|
-3p2-2-2-2-2-3p2-2-5-x-3-x-2-x-2-|
 * * * * * * * * * * * * * * * *

verse cont (dist)
---------------------------------|
---------------------------------|
---------------------------------|
-3p2-2-2-----3p2---0---0---0-----|
-3p2-2-2-----3p2---0---0---0-----|
-3p2-2-2-2-2-3p2-2-0-0-0-0-0-0-0-|
 * * * * * * * * * * * * * * * *

verse cont (dist)
---------------------------------|
---------------------------------|
---------------------------------|
-3p2-2-2-----3p2---5-x-3-x-2-x-2-|
-3p2-2-2-----3p2---5-x-3-x-2-x-2-|
-3p2-2-2-2-2-3p2-2-5-x-3-x-2-x-2-|
 * * * * * * * * * * * * * * * *

verse cont (dist)
-------------------------------------|
-------------------------------------|
-------------------------------------|
-3p2-2-2-----3p2---5-x-3-x-2-x-0-----|
-3p2-2-2-----3p2---5-x-3-x-2-x-0-----|
-3p2-2-2-2-2-3p2-2-5-x-3-x-2-x-0-0-0-|
 * * * * * * * * * * * * * * * * * *

verse cont (dist)
-----------------------------------------------|
-----------------------------------------------|
---------------------------------2-2-2-5-5-----|
-3p2-2-2-----3p2---5-x-3-x-2-x-0-0-0-0-3-3-0-0-|
-3p2-2-2-----3p2---5-x-3-x-2-x-0-0-0-0-3-3-0-0-|
-3p2-2-2-2-2-3p2-2-5-x-3-x-2-x-0-0-0-0-3-3-0-0-|
 * * * * * * * * * * * * * * *

chorus (dist)
----------------------------------------------------------|
----------------------------------------------------------|
----------------------------------------------------------|
-9-9-9-9-9-9-10-10-10-10-10-9-9-7-7-7-7-7-7-5-5-5-5-5-7-7-|
-7-7-7-7-7-7--7--7--7--7--7-7-7-5-5-5-5-5-5-3-3-3-3-3-5-5-|
----------------------------------------------------------|

chorus cont
----------------------------------------------------------|
----------------------------------------------------------|
----------------------------------------------------------|
-9-9-9-9-9-9-10-10-10-10-10-9-9-7-7-7-7-7-7-5-5-5-5-5-7-7-|
-7-7-7-7-7-7--7--7--7--7--7-7-7-5-5-5-5-5-5-3-3-3-3-3-5-5-|
----------------------------------------------------------|

chorus cont
----------------------------------------------------------|
----------------------------------------------------------|
----------------------------------------------------------|
-9-9-9-9-9-9-10-10-10-10-10-9-9-7-7-7-7-7-7-5-5-5-5-5-7-7-|
-7-7-7-7-7-7--7--7--7--7--7-7-7-5-5-5-5-5-5-3-3-3-3-3-5-5-|
----------------------------------------------------------|

chorus cont
----------------------------------------------------------|
----------------------------------------------------------|
----------------------------------------------------------|
-9-9-9-9-9-9-10-10-10-10-10-9-9-7-7-7-7-7-7-5-5-5-5-5-7-7-|
-7-7-7-7-7-7--7--7--7--7--7-7-7-5-5-5-5-5-5-3-3-3-3-3-5-5-|
----------------------------------------------------------|

chorus cont
----------------------------------------------------------|
----------------------------------------------------------|
----------------------------------------------------------|
-9-9-9-9-9-9-10-10-10-10-10-9-9-7-7-7-7-7-7-5-5-5-5-5-7-7-|
-7-7-7-7-7-7--7--7--7--7--7-7-7-5-5-5-5-5-5-3-3-3-3-3-5-5-|
----------------------------------------------------------|

chorus cont
----------------------------------------------------------|
----------------------------------------------------------|
----------------------------------------------------------|
-9-9-9-9-9-9-10-10-10-10-10-9-9-7-7-7-7-7-7-5-5-5-5-5-7-7-|
-7-7-7-7-7-7--7--7--7--7--7-7-7-5-5-5-5-5-5-3-3-3-3-3-5-5-|
----------------------------------------------------------|

chorus cont
----------------------------------------------------------|
----------------------------------------------------------|
----------------------------------------------------------|
-9-9-9-9-9-9-10-10-10-10-10-9-9-7-7-7-7-7-7-5-5-5-5-5-7-7-|
-7-7-7-7-7-7--7--7--7--7--7-7-7-5-5-5-5-5-5-3-3-3-3-3-5-5-|
----------------------------------------------------------|

interlude
----------------------------------------------------------------|
---12---12---12---10---8-8-/-10----12---12---12---10---8-8-/----|
-9----9----9----7----5---5-/--7--9----9----9----7----5---5-/----|
----------------------------------------------------------------|
----------------------------------------------------------------|
----------------------------------------------------------------|

interlude cont
----------------------------------------------------------------|
---12---12---12---10---8-8-/-10----12---12----------------------|
-9----9----9----7----5---5-/--7--9----9----9-7-7-10-------------|
---------------------------------------------7-7-10-------------|
---------------------------------------------5-5--8-------------|
----------------------------------------------------------------|

solo w/wah-wah
-/-12-12-------12-----12--------------------------------------------------------------|
-/-12-11-12-12-12-15^----15p12h15p12--------------------------------------------------|
---------12--9-12--------------------15p14h15p14p12----12-14^-(14)^-14^-14^-14^-(14)\-|
----------------------------------------------------14--------------------------------|
--------------------------------------------------------------------------------------|
--------------------------------------------------------------------------------------|
   T  T  T   T  T

solo w/wah-wah
---------------------------------------------------------------------------------------|
------------------------------------12-14-14-12----12----14-14-12----12----14p12----12-|
-2^-2h3-(3)^-2h0---0h2p0---0h2-0-4/-12-14-14-12----12----14-14-12----12----14p12----12-|
-----------------2-------2----------------------14----14----------14----14-------14----|
---------------------------------------------------------------------------------------|
---------------------------------------------------------------------------------------|

chorus (dist)
----------------------------------------------------------|
----------------------------------------------------------|
----------------------------------------------------------|
-9-9-9-9-9-9-10-10-10-10-10-9-9-7-7-7-7-7-7-5-5-5-5-5-7-7-|
-7-7-7-7-7-7--7--7--7--7--7-7-7-5-5-5-5-5-5-3-3-3-3-3-5-5-|
----------------------------------------------------------|

chorus cont
----------------------------------------------------------|
----------------------------------------------------------|
----------------------------------------------------------|
-9-9-9-9-9-9-10-10-10-10-10-9-9-7-7-7-7-7-7-5-5-5-5-5-7-7-|
-7-7-7-7-7-7--7--7--7--7--7-7-7-5-5-5-5-5-5-3-3-3-3-3-5-5-|
----------------------------------------------------------|

chorus cont
----------------------------------------------------------|
----------------------------------------------------------|
----------------------------------------------------------|
-9-9-9-9-9-9-10-10-10-10-10-9-9-7-7-7-7-7-7-5-5-5-5-5-7-7-|
-7-7-7-7-7-7--7--7--7--7--7-7-7-5-5-5-5-5-5-3-3-3-3-3-5-5-|
----------------------------------------------------------|

chorus cont
----------------------------------------------------------|
----------------------------------------------------------|
----------------------------------------------------------|
-9-9-9-9-9-9-10-10-10-10-10-9-9-7-7-7-7-7-7-5-5-5-5-5-7-7-|
-7-7-7-7-7-7--7--7--7--7--7-7-7-5-5-5-5-5-5-3-3-3-3-3-5-5-|
----------------------------------------------------------|

chorus cont
----------------------------------------------------------|
----------------------------------------------------------|
----------------------------------------------------------|
-9-9-9-9-9-9-10-10-10-10-10-9-9-7-7-7-7-7-7-5-5-5-5-5-7-7-|
-7-7-7-7-7-7--7--7--7--7--7-7-7-5-5-5-5-5-5-3-3-3-3-3-5-5-|
----------------------------------------------------------|

chorus cont
----------------------------------------------------------|
----------------------------------------------------------|
----------------------------------------------------------|
-9-9-9-9-9-9-10-10-10-10-10-9-9-7-7-7-7-7-7-5-5-5-5-5-7-7-|
-7-7-7-7-7-7--7--7--7--7--7-7-7-5-5-5-5-5-5-3-3-3-3-3-5-5-|
----------------------------------------------------------|

chorus cont
----------------------------------------------------------|
----------------------------------------------------------|
----------------------------------------------------------|
-9-9-9-9-9-9-10-10-10-10-10-9-9-7-7-7-7-7-7-5-5-5-5-5-7-7-|
-7-7-7-7-7-7--7--7--7--7--7-7-7-5-5-5-5-5-5-3-3-3-3-3-5-5-|
----------------------------------------------------------|

outro 1 (dist) 3x
---------------------------------|
---------------------------------|
---------------------------------|
-3p2-2-2-----3p2---5-x-3-x-2-x-2-|
-3p2-2-2-----3p2---5-x-3-x-2-x-2-|
-3p2-2-2-2-2-3p2-2-5-x-3-x-2-x-2-|
 * * * * * * * * * * * * * * * *

outro 2 (dist)
--0--0--0--0--0--0--0--0--0--0--0--0--0--0--0--0--0--0--0--0--0--0--0--0--0--0-|
-12-12-12-12-12-12-12-12-12-12-12-12-12-13-13-13-13-13-13-13-13-13-13-13-13-13-|
-------------------------------------------------------------------------------|
-------------------------------------------------------------------------------|
-------------------------------------------------------------------------------|
-------------------------------------------------------------------------------|

outro 2 cont (dist)
--0--0--0--0--0--0--0--0--0--0--0--0--0----0--0--0--0--0--0--0--0--0-|
-15-15-15-15-15-15-15-15-15-15-15-15-15-/-17-17-17-17-17-17-17-17-17-|
---------------------------------------------------------------------|
---------------------------------------------------------------------|
---------------------------------------------------------------------|
---------------------------------------------------------------------|

##################################################################################################
the enemy (low to high) DADGBE
                               *=palm mute   /=slide up
                               T=trem pick   \=slide down
intro (dist)                   p=pull off
------------------------------------------------------------|
------------------------------------------------------------|
------------------------------------------------------------|
------------------------------------------------------------|
-0-0-0--0-0-0-0--0--0-0-0-0-0--0-0-0--0-0-0-0--0--0-0-0-0-0-|
-0-0-0--0-0-0-0--0--0-0-0-0-0--0-0-0--0-0-0-0--0--0-0-0-0-0-|
 * * *  * * * *  *  * * * * *  * * *  * * * *  *  * * * * *

intro 2 w/wah-wah 4x           wah off
----------------|-------------|--------|
----------------|-------------|--------|
-8-\-7-7-8-\-7-7|-8-\-7-------|--------|
-x-----x-x-----x|-x-----------|--------|
-6-\-5-5-6-\-5-5|-6-\-5-------|--------|
----------------|-------------|-/-12-\-|
                 4th time dont|play this instead
                 play this    |

verse (dist)
--------------------------------------------------------------|
--------------------------------------------------------------|
--------------------------------------------------------------|
--------------------------------------------------------------|
-0-0-0--0-0-0-0--0--0-0-0-0-0--0-0-0--0-0-0-0--0--0-0--6-6--6-|
-0-0-0--0-0-0-0--0--0-0-0-0-0--0-0-0--0-0-0-0--0--0-0--6-6--6-|

verse cont (dist)
---------------------------------------------------------------|
---------------------------------------------------------------|
---------------------------------------------------------------|
---------------------------------------------------------------|
-0-0-0--0-0-0-0--0--0-0-0-0-0--0-0-0--0-0-0-0--0-3-3-3-3-3-3-3-|
-0-0-0--0-0-0-0--0--0-0-0-0-0--0-0-0--0-0-0-0--0-3-3-3-3-3-3-3-|

verse cont. (dist)
--------------------------------------------------------------|
--------------------------------------------------------------|
--------------------------------------------------------------|
--------------------------------------------------------------|
-0-0-0--0-0-0-0--0--0-0-0-0-0--0-0-0--0-0-0-0--0--0-0--6-6--6-|
-0-0-0--0-0-0-0--0--0-0-0-0-0--0-0-0--0-0-0-0--0--0-0--6-6--6-|

verse cont> (dist)
---------------------------------------------------------------|
---------------------------------------------------------------|
---------------------------------------------------------------|
---------------------------------------------------------------|
-0-0-0--0-0-0-0--0--0-0-0-0-0--0-0-0--0-0-0-0--0-3-3-3-3-3-3-3-|
-0-0-0--0-0-0-0--0--0-0-0-0-0--0-0-0--0-0-0-0--0-3-3-3-3-3-3-3-|

chorus (dist)
----------------------------------------------------|
---3-3-3-3-3-3-3------------------------------------|
---2-2-2-2-2-2-2-5-5-5-5-5-5-/-10-10-10-10-10-10-10-|
---0-0-0-0-0-0-0-5-5-5-5-5-5-/-10-10-10-10-10-10-10-|
-0-0-0-0-0-0-0-0-3-3-3-3-3-3-/--8--8--8--8--8--8--8-|
-0-0-0-0-0-0-0-0------------------------------------|

chorus cont. (dist)
-------------------------------------------|
---3-3-3-3-3-3-3---------------------------|
---2-2-2-2-2-2-2-5-5-5-5-5-5-3-3-3-3-------|
---0-0-0-0-0-0-0-5-5-5-5-5-5-3-3-3-3-2-2-2-|
-0-0-0-0-0-0-0-0-3-3-3-3-3-3-1-1-1-1-0-0-0-|
-0-0-0-0-0-0-0-0---------------------------|

chorus cont. (dist)
----------------------------------------------------|
---3-3-3-3-3-3-3------------------------------------|
---2-2-2-2-2-2-2-5-5-5-5-5-5-/-10-10-10-10-10-10-10-|
---0-0-0-0-0-0-0-5-5-5-5-5-5-/-10-10-10-10-10-10-10-|
-0-0-0-0-0-0-0-0-3-3-3-3-3-3-/--8--8--8--8--8--8--8-|
-0-0-0-0-0-0-0-0------------------------------------|

chorus cont. (dist)
---------------------------------------------|
---3-3-3-3-3-3-3-----------------------------|
---2-2-2-2-2-2-2---------------3-3-3-3-------|
---0-0-0-0-0-0-0----5---5---3--3-3-3-3-2-2-2-|
-0-0-0-0-0-0-0-0----3---3---1--1-1-1-1-0-0-0-|
-0-0-0-0-0-0-0-0--0---0---0------------------|
                  *   *   *

interlude (dist)
------------------------------------------------------------|
------------------------------------------------------------|
------------------------------------------------------------|
------------------------------------------------------------|
-0-0-0--0-0-0-0--0--0-0-0-0-0--0-0-0--0-0-0-0--0--0-0-6-6-6-|
-0-0-0--0-0-0-0--0--0-0-0-0-0--0-0-0--0-0-0-0--0--0-0-6-6-6-|

interlude cont (dist)             w/wah-wah
---------------------------------|---------------------------------|
---------------------------------|---------------------------------|
---------------------------------|---------------------------------|
---------------------------------|---------------------------------|
-0-0-0--0-0-0-0--0--0-0-0--------|-0-7-8-0-5-7-0-3-5-0-2-3-0-1-1-1-|
-0-0-0--0-0-0-0--0--0-0-0-/-10-\-|-0-7-8-0-5-7-0-3-5-0-2-3-0-1-1-1-|

verse (dist)
--------------------------------------------------------------|
--------------------------------------------------------------|
--------------------------------------------------------------|
--------------------------------------------------------------|
-0-0-0--0-0-0-0--0--0-0-0-0-0--0-0-0--0-0-0-0--0--0-0--6-6--6-|
-0-0-0--0-0-0-0--0--0-0-0-0-0--0-0-0--0-0-0-0--0--0-0--6-6--6-|

verse cont (dist)
---------------------------------------------------------------|
---------------------------------------------------------------|
---------------------------------------------------------------|
---------------------------------------------------------------|
-0-0-0--0-0-0-0--0--0-0-0-0-0--0-0-0--0-0-0-0--0-3-3-3-3-3-3-3-|
-0-0-0--0-0-0-0--0--0-0-0-0-0--0-0-0--0-0-0-0--0-3-3-3-3-3-3-3-|

verse cont. (dist)
--------------------------------------------------------------|
--------------------------------------------------------------|
--------------------------------------------------------------|
--------------------------------------------------------------|
-0-0-0--0-0-0-0--0--0-0-0-0-0--0-0-0--0-0-0-0--0--0-0--6-6--6-|
-0-0-0--0-0-0-0--0--0-0-0-0-0--0-0-0--0-0-0-0--0--0-0--6-6--6-|

verse cont> (dist)
---------------------------------------------------------------|
---------------------------------------------------------------|
---------------------------------------------------------------|
---------------------------------------------------------------|
-0-0-0--0-0-0-0--0--0-0-0-0-0--0-0-0--0-0-0-0--0-3-3-3-3-3-3-3-|
-0-0-0--0-0-0-0--0--0-0-0-0-0--0-0-0--0-0-0-0--0-3-3-3-3-3-3-3-|

chorus (dist)
----------------------------------------------------|
---3-3-3-3-3-3-3------------------------------------|
---2-2-2-2-2-2-2-5-5-5-5-5-5-/-10-10-10-10-10-10-10-|
---0-0-0-0-0-0-0-5-5-5-5-5-5-/-10-10-10-10-10-10-10-|
-0-0-0-0-0-0-0-0-3-3-3-3-3-3-/--8--8--8--8--8--8--8-|
-0-0-0-0-0-0-0-0------------------------------------|

chorus cont. (dist)
-------------------------------------------|
---3-3-3-3-3-3-3---------------------------|
---2-2-2-2-2-2-2-5-5-5-5-5-5-3-3-3-3-------|
---0-0-0-0-0-0-0-5-5-5-5-5-5-3-3-3-3-2-2-2-|
-0-0-0-0-0-0-0-0-3-3-3-3-3-3-1-1-1-1-0-0-0-|
-0-0-0-0-0-0-0-0---------------------------|

chorus cont. (dist)
----------------------------------------------------|
---3-3-3-3-3-3-3------------------------------------|
---2-2-2-2-2-2-2-5-5-5-5-5-5-/-10-10-10-10-10-10-10-|
---0-0-0-0-0-0-0-5-5-5-5-5-5-/-10-10-10-10-10-10-10-|
-0-0-0-0-0-0-0-0-3-3-3-3-3-3-/--8--8--8--8--8--8--8-|
-0-0-0-0-0-0-0-0------------------------------------|

chorus cont. (dist)
---------------------------------------------|
---3-3-3-3-3-3-3-----------------------------|
---2-2-2-2-2-2-2---------------3-3-3-3-------|
---0-0-0-0-0-0-0----5---5---3--3-3-3-3-2-2-2-|
-0-0-0-0-0-0-0-0----3---3---1--1-1-1-1-0-0-0-|
-0-0-0-0-0-0-0-0--0---0---0------------------|
                  *   *   *

intro (dist)
------------------------------------------------------------|
------------------------------------------------------------|
------------------------------------------------------------|
------------------------------------------------------------|
-0-0-0--0-0-0-0--0--0-0-0-0-0--0-0-0--0-0-0-0--0--0-0-0-0-0-|
-0-0-0--0-0-0-0--0--0-0-0-0-0--0-0-0--0-0-0-0--0--0-0-0-0-0-|
 * * *  * * * *  *  * * * * *  * * *  * * * *  *  * * * * *

intro 2 w/wah-wah 4x           wah off
----------------|-------------|--------|
----------------|-------------|--------|
-8-\-7-7-8-\-7-7|-8-\-7-------|--------|
-x-----x-x-----x|-x-----------|--------|
-6-\-5-5-6-\-5-5|-6-\-5-------|--------|
----------------|-------------|-/-12-\-|
                 4th time dont|play this instead
                 play this    |

interlude 2 (dist)
------------------------------------------------------------|
------------------------------------------------------------|
-8-\-7-----8-\-7-----13-\-12-12---8-\-7-----8-\-7-----5-5---|
-x---------x----------x-------x---x---------x---------x-x---|
-6-\-5-----6-\-5-----11-\-10-10---6-\-5-----6-\-5-----3-3---|
-------0-0-------0-0------------0-------0-0-------0-0-----0-|

interlude 2 cont (dist)
------------------------------------------------------------|
------------------------------------------------------------|
-8-\-7-----8-\-7-----13-\-12-12---8-\-7-----8-\-7-----5-5---|
-x---------x----------x-------x---x---------x---------x-x---|
-6-\-5-----6-\-5-----11-\-10-10---6-\-5-----6-\-5-----3-3---|
-------0-0-------0-0------------0-------0-0-------0-0-----0-|


interlude 3 (dist)
-----------------------------------|
-----------------------------------|
-7-7-7-8-8-10-10-8-7-7-\-2-2-5-5-5-|
-0-0-0-0-0--0--0-0-0-0---0-0-0-0-0-|
-----------------------------------|
-----------------------------------|
 T T T T T  T  T T T T   T T T T T

bridge (dist)
-----------------------------------------------------------------|
-----------------------------------------------------------------|
-----------------------------------------------------------------|
-----------------------------------------------------------------|
-0-0-0-0-1p0-0-0-0-1p0-0-1p0-0-0-0-0-0-0-0-1p0-0-0-0-1p0-0-1p0-3-|
-0-0-0-0-1p0-0-0-0-1p0-0-1p0-0-0-0-0-0-0-0-1p0-0-0-0-1p0-0-1p0-3-|
 * * * *     * * *     *     * * * * * * *     * * *     *

bridge 2 (dist)
-------------------------------------------------------------------|
-------------------------------------------------------------------|
-------------------------------------------------------------------|
-------------------------------------------------------------------|
-0-0-0-0-0-1p0-0-0-0-1p0-0-1p0-0-0-0-0-0-0-0-1p0-0-0-0-1p0-0-1p0-3-|
-0-0-0-0-0-1p0-0-0-0-1p0-0-1p0-0-0-0-0-0-0-0-1p0-0-0-0-1p0-0-1p0-3-|
 * * * * *     * * *     *     * * * * * * *     * * *     *

bridge 2 cont (dist)
-------------------------------------------------------------------|
-------------------------------------------------------------------|
-------------------------------------------------------------------|
-------------------------------------------------------------------|
-0-0-0-0-0-1p0-0-0-0-1p0-0-1p0-0-0-0-0-0-0-0-1p0-0-0-0-1p0-0-1p0-3-|
-0-0-0-0-0-1p0-0-0-0-1p0-0-1p0-0-0-0-0-0-0-0-1p0-0-0-0-1p0-0-1p0-3-|
 * * * * *     * * *     *     * * * * * * *     * * *     *

bridge 2 cont (dist)
-------------------------------------------------------------------|
-------------------------------------------------------------------|
-------------------------------------------------------------------|
-------------------------------------------------------------------|
-0-0-0-0-0-1p0-0-0-0-1p0-0-1p0-0-0-0-0-0-0-0-1p0-0-0-0-1p0-0-1p0-3-|
-0-0-0-0-0-1p0-0-0-0-1p0-0-1p0-0-0-0-0-0-0-0-1p0-0-0-0-1p0-0-1p0-3-|
 * * * * *     * * *     *     * * * * * * *     * * *     *

interlude 2 (dist)
------------------------------------------------------------|
------------------------------------------------------------|
-8-\-7-----8-\-7-----13-\-12-12---8-\-7-----8-\-7-----5-5---|
-x---------x----------x-------x---x---------x---------x-x---|
-6-\-5-----6-\-5-----11-\-10-10---6-\-5-----6-\-5-----3-3---|
-------0-0-------0-0------------0-------0-0-------0-0-----0-|

interlude 2 cont (dist)
------------------------------------------------------------|
------------------------------------------------------------|
-8-\-7-----8-\-7-----13-\-12-12---8-\-7-----8-\-7-----5-5---|
-x---------x----------x-------x---x---------x---------x-x---|
-6-\-5-----6-\-5-----11-\-10-10---6-\-5-----6-\-5-----3-3---|
-------0-0-------0-0------------0-------0-0-------0-0-----0-|


interlude 4 (dist)
-(12)-(12)-\-|-----------------------------|
-------------|-----------------------------|
-------------|-7-7-7-8-8-10-10-11-11-11-11-|
-------------|-0-0-0-0-0--0--0--0--0--0--0-|
-------------|-----------------------------|
-------------|-----------------------------|
feedback       T T T T T  T  T  T  T  T  T

fill in
------|---------------------------------|
------|---------------------------------|
------|---------------------------------|
------|---------------------------------|
------|---------------------------------|
------|-6-6-6-6-6-6-6-6-6-6-6-6-6-6-6-6-|
-0----|-6-6-6-6-6-6-6-6-6-6-6-6-6-6-6-6-|
W/bar | * * * * * * * * * * * * * * * *

chorus (dist)
----------------------------------------------------|
---3-3-3-3-3-3-3------------------------------------|
---2-2-2-2-2-2-2-5-5-5-5-5-5-/-10-10-10-10-10-10-10-|
---0-0-0-0-0-0-0-5-5-5-5-5-5-/-10-10-10-10-10-10-10-|
-0-0-0-0-0-0-0-0-3-3-3-3-3-3-/--8--8--8--8--8--8--8-|
-0-0-0-0-0-0-0-0------------------------------------|

chorus cont. (dist)
-------------------------------------------|
---3-3-3-3-3-3-3---------------------------|
---2-2-2-2-2-2-2-5-5-5-5-5-5-3-3-3-3-------|
---0-0-0-0-0-0-0-5-5-5-5-5-5-3-3-3-3-2-2-2-|
-0-0-0-0-0-0-0-0-3-3-3-3-3-3-1-1-1-1-0-0-0-|
-0-0-0-0-0-0-0-0---------------------------|

chorus cont. (dist)
----------------------------------------------------|
---3-3-3-3-3-3-3------------------------------------|
---2-2-2-2-2-2-2-5-5-5-5-5-5-/-10-10-10-10-10-10-10-|
---0-0-0-0-0-0-0-5-5-5-5-5-5-/-10-10-10-10-10-10-10-|
-0-0-0-0-0-0-0-0-3-3-3-3-3-3-/--8--8--8--8--8--8--8-|
-0-0-0-0-0-0-0-0------------------------------------|

chorus cont. (dist)
---------------------------------------------|
---3-3-3-3-3-3-3-----------------------------|
---2-2-2-2-2-2-2---------------3-3-3-3-------|
---0-0-0-0-0-0-0----5---5---3--3-3-3-3-2-2-2-|
-0-0-0-0-0-0-0-0----3---3---1--1-1-1-1-0-0-0-|
-0-0-0-0-0-0-0-0--0---0---0------------------|
                  *   *   *
outro (dist)
------------------------------------------------------------|
------------------------------------------------------------|
------------------------------------------------------------|
------------------------------------------------------------|
-0-0-0--0-0-0-0--0--0-0-0-0-0--0-0-0--0-0-0-0--0--0-0-0-0-0-|
-0-0-0--0-0-0-0--0--0-0-0-0-0--0-0-0--0-0-0-0--0--0-0-0-0-0-|

outro cont (dist)
outro (dist)
----------------------------------------------|
----------------------------------------------|
----------------------------------------------|
----------------------------------------------|
-0-0-0--0-0-0-0--0--0-0-0-0-0--0-0-0--0-0-0-0-|
-0-0-0--0-0-0-0--0--0-0-0-0-0--0-0-0--0-0-0-0-|

########################################################################################################
shine down (low to high) DADGBE
                            *=palm mute    \=slide down    ^=bend
                            T=trem pick    p=pull off
                            /=slide up     h=hammer on
intro (dist)
---------------------------------------------------------|
-----------------------------5p0-------------------------|
-5p0-----------2-2-2-2---2-2-----5/7-------2-2-2-2---0-0-|
-----5/7-------3-3-3-3---2-2---------------3-3-3-3---0-0-|
---------0-0-0---------0-------------0-0-0---------0-----|
---------------------------------------------------------|
                       *                           *

intro cont (dist)
-----------------------------------------------------------------|
-----------------------------5p0---------------------------------|
-5p0-----------2-2-2-2---2-2-----5/7-5-5-5-5-/-7-7-7-7-0-5p0-----|
-----5/7-------3-3-3-3---2-2---------5-5-5-5-/-7-7-7-7-------5/7-|
---------0-0-0---------0-------------3-3-3-3-/-5-5-5-5-----------|
-----------------------------------------------------------------|
                       *

intro 2 (dist)
-------------------------------------------------|
---------------------5p0-------------------------|
-------2-2-2-2---2-2-----5/7-------2-2-2-2---0-0-|
-------3-3-3-3---2-2---------------3-3-3-3---0-0-|
-0-0-0---------0-------------0-0-0---------0-----|
-------------------------------------------------|
               *                           *

intro 2 cont (dist)
---------------------------------------------------|
---------------5p0---------------------------------|
-2-2-2-2---2-2-----5/7-5-5-5-/-7-7-7-7-----------0-|
-3-3-3-3---2-2---------5-5-5-/-7-7-7-7-----------0-|
---------0-------------3-3-3-/-5-5-5-5-0-5-/-7-8---|
-----------------------------------------5-/-7-8---|
         *

verse (dist)
---------------------------------------------------------|
---------------------------------------------------------|
-2-2-2-2---2-2-2-2---2-2---2-2-2-2---2-2-2-3-3-3-3-3-3-3-|
-2-2-2-2---2-2-2-2---2-2---2-2-2-2---2-2-2-3-3-3-3-3-3-3-|
---------0---------0-----0---------0---------------------|
---------------------------------------------------------|
         *         *     *         *

verse cont (dist)
---------------------------------------------------------|
---------------------------------------------------------|
-2-2-2-2---2-2-2-2---2-2---2-2-2-2---2-2-2-0-0-0-0-0-0-0-|
-2-2-2-2---2-2-2-2---2-2---2-2-2-2---2-2-2-0-0-0-0-0-0-0-|
---------0---------0-----0---------0---------------------|
---------------------------------------------------------|
         *         *     *         *

verse cont (dist)
---------------------------------------------------------|
---------------------------------------------------------|
-2-2-2-2---2-2-2-2---2-2---2-2-2-2---2-2-2-3-3-3-3-3-3-3-|
-2-2-2-2---2-2-2-2---2-2---2-2-2-2---2-2-2-3-3-3-3-3-3-3-|
---------0---------0-----0---------0---------------------|
---------------------------------------------------------|
         *         *     *         *

verse cont (dist)
---------------------------------------------------------|
---------------------------------------------------------|
-2-2-2-2---2-2-2-2---2-2---2-2-2-2---2-2-2-0-0-0-0-0-0-0-|
-2-2-2-2---2-2-2-2---2-2---2-2-2-2---2-2-2-0-0-0-0-0-0-0-|
---------0---------0-----0---------0---------------------|
---------------------------------------------------------|
         *         *     *         *


pre-chorus (dist)
---------------------------------------------------------------------|
---------------------------------------------------------------------|
---5-5-5-5-5-5-5-5-----7-7---7-7-7-7-7---5-5-5-5-5-5-5-5-------------|
-3-3-3-3-3-3-3-3-3-5-5-5-5-5-5-5-5-5-5-3-3-3-3-3-3-3-3-3-2-2-(2)/5-5-|
-3-3-3-3-3-3-3-3-3-5-5-5-5-5-5-5-5-5-5-3-3-3-3-3-3-3-3-3-2-2-(2)/5-5-|
-3-3-3-3-3-3-3-3-3-5-5-5-5-5-5-5-5-5-5-3-3-3-3-3-3-3-3-3-2-2-(2)/5-5-|

chorus (dist)
---------------------------------------------------------|
-----------------------------5p0-------------------------|
-5p0-----------2-2-2-2---2-2-----5/7-------2-2-2-2---0-0-|
-----5/7-------3-3-3-3---2-2---------------3-3-3-3---0-0-|
---------0-0-0---------0-------------0-0-0---------0-----|
---------------------------------------------------------|
                       *                           *

chorus cont (dist)
-----------------------------------------------------------------|
-----------------------------5p0---------------------------------|
-5p0-----------2-2-2-2---2-2-----5/7-5-5-5-5-/-7-7-7-7-0-5p0-----|
-----5/7-------3-3-3-3---2-2---------5-5-5-5-/-7-7-7-7-------5/7-|
---------0-0-0---------0-------------3-3-3-3-/-5-5-5-5-----------|
-----------------------------------------------------------------|
                       *

chorus cont (dist)
---------------------------------------------------------|
-----------------------------5p0-------------------------|
-5p0-----------2-2-2-2---2-2-----5/7-------2-2-2-2---0-0-|
-----5/7-------3-3-3-3---2-2---------------3-3-3-3---0-0-|
---------0-0-0---------0-------------0-0-0---------0-----|
---------------------------------------------------------|
                       *                           *

chorus cont (dist)
-----------------------------------------------------------------|
-----------------------------5p0---------------------------------|
-5p0-----------2-2-2-2---2-2-----5/7-5-5-5-5-/-7-7-7-7-0-5p0-----|
-----5/7-------3-3-3-3---2-2---------5-5-5-5-/-7-7-7-7-------5/7-|
---------0-0-0---------0-------------3-3-3-3-/-5-5-5-5-----------|
-----------------------------------------------------------------|
                       *

verse (dist)
---------------------------------------------------------|
---------------------------------------------------------|
-2-2-2-2---2-2-2-2---2-2---2-2-2-2---2-2-2-3-3-3-3-3-3-3-|
-2-2-2-2---2-2-2-2---2-2---2-2-2-2---2-2-2-3-3-3-3-3-3-3-|
---------0---------0-----0---------0---------------------|
---------------------------------------------------------|
         *         *     *         *

verse cont (dist)
---------------------------------------------------------|
---------------------------------------------------------|
-2-2-2-2---2-2-2-2---2-2---2-2-2-2---2-2-2-0-0-0-0-0-0-0-|
-2-2-2-2---2-2-2-2---2-2---2-2-2-2---2-2-2-0-0-0-0-0-0-0-|
---------0---------0-----0---------0---------------------|
---------------------------------------------------------|
         *         *     *         *

verse cont (dist)
---------------------------------------------------------|
---------------------------------------------------------|
-2-2-2-2---2-2-2-2---2-2---2-2-2-2---2-2-2-3-3-3-3-3-3-3-|
-2-2-2-2---2-2-2-2---2-2---2-2-2-2---2-2-2-3-3-3-3-3-3-3-|
---------0---------0-----0---------0---------------------|
---------------------------------------------------------|
         *         *     *         *

verse cont (dist)
---------------------------------------------------------|
---------------------------------------------------------|
-2-2-2-2---2-2-2-2---2-2---2-2-2-2---2-2-2-0-0-0-0-0-0-0-|
-2-2-2-2---2-2-2-2---2-2---2-2-2-2---2-2-2-0-0-0-0-0-0-0-|
---------0---------0-----0---------0---------------------|
---------------------------------------------------------|
         *         *     *         *


pre-chorus 2  (dist)
---------------------------------------------------------------------|
---------------------------------------------------------------------|
---5-5-5-5-5-5-5-5-----7-7---7-7-7-7-7---5-5-5-5-5-5-5-5-------------|
-3-3-3-3-3-3-3-3-3-5-5-5-5-5-5-5-5-5-5-3-3-3-3-3-3-3-3-3-2-2-(2)/5-5-|
-3-3-3-3-3-3-3-3-3-5-5-5-5-5-5-5-5-5-5-3-3-3-3-3-3-3-3-3-2-2-(2)/5-5-|
-3-3-3-3-3-3-3-3-3-5-5-5-5-5-5-5-5-5-5-3-3-3-3-3-3-3-3-3-2-2-(2)/5-5-|

pre-chorus 2 cont (dist)
------------------------------------------------------------------------------------------|
------------------------------------------------------------------------------------------|
-----7-7---7-7-7-7-7---5-5-5-5-5-5-5-5------7-7---7-7-7-7-7---5-5-5-5-5-5-5-5-------------|
-5-5-5-5-5-5-5-5-5-5-3-3-3-3-3-3-3-3-3--5-5-5-5-5-5-5-5-5-5-3-3-3-3-3-3-3-3-3-2-2-(2)/5-5-|
-5-5-5-5-5-5-5-5-5-5-3-3-3-3-3-3-3-3-3--5-5-5-5-5-5-5-5-5-5-3-3-3-3-3-3-3-3-3-2-2-(2)/5-5-|
-5-5-5-5-5-5-5-5-5-5-3-3-3-3-3-3-3-3-3--5-5-5-5-5-5-5-5-5-5-3-3-3-3-3-3-3-3-3-2-2-(2)/5-5-|

chorus (dist)
---------------------------------------------------------|
-----------------------------5p0-------------------------|
-5p0-----------2-2-2-2---2-2-----5/7-------2-2-2-2---0-0-|
-----5/7-------3-3-3-3---2-2---------------3-3-3-3---0-0-|
---------0-0-0---------0-------------0-0-0---------0-----|
---------------------------------------------------------|
                       *                           *

chorus cont (dist)
-----------------------------------------------------------------|
-----------------------------5p0---------------------------------|
-5p0-----------2-2-2-2---2-2-----5/7-5-5-5-5-/-7-7-7-7-0-5p0-----|
-----5/7-------3-3-3-3---2-2---------5-5-5-5-/-7-7-7-7-------5/7-|
---------0-0-0---------0-------------3-3-3-3-/-5-5-5-5-----------|
-----------------------------------------------------------------|
                       *

chorus cont (dist)
---------------------------------------------------------|
-----------------------------5p0-------------------------|
-5p0-----------2-2-2-2---2-2-----5/7-------2-2-2-2---0-0-|
-----5/7-------3-3-3-3---2-2---------------3-3-3-3---0-0-|
---------0-0-0---------0-------------0-0-0---------0-----|
---------------------------------------------------------|
                       *                           *

chorus cont (dist)
-----------------------------------------------------------------|
-----------------------------5p0---------------------------------|
-5p0-----------2-2-2-2---2-2-----5/7-5-5-5-5-/-7-7-7-7-0-5p0-----|
-----5/7-------3-3-3-3---2-2---------5-5-5-5-/-7-7-7-7-------5/7-|
---------0-0-0---------0-------------3-3-3-3-/-5-5-5-5-----------|
-----------------------------------------------------------------|
                       *

solo w/wah-wah (he uses a harmonica for this)
-----------15-(15)-----------------------------------------------------------|
-15^-(15)^---------15^-(15)^-15^-(15)^-15------------------------------------|
------------------------------------------14---14---14-14-14----14-14-14-16^-|
---------------------------------------------16---16---------16--------------|
-----------------------------------------------------------------------------|
-----------------------------------------------------------------------------|

solo cont w/wah-wah (he uses a harmonica for this)
----------------15--------------------17^-17^-17-17^-(17)p15------------------|
-14-14----14------17-15-17-15-----------------15-------------17\15-15^-15-15^-|
-------14----14---------------16^-14------------------------------------------|
------------------------------------------------------------------------------|
------------------------------------------------------------------------------|
------------------------------------------------------------------------------|

solo cont w/wah-wah (he uses a harmonica for this)
-12-12--------12-12-----15-----15--15--15--|
-------15-15^-------15^----15^-15^-15^-15^-|
-------------------------------------------|
-------------------------------------------|
-------------------------------------------|
-------------------------------------------|
                               T    T   T

outro (dist)
-----------------------------|
-----------------------------|
-5-5-5-5-/-7-7-7-7-0-5p0-----|
-5-5-5-5-/-7-7-7-7-------5/7-|
-3-3-3-3-/-5-5-5-5-----------|
-----------------------------|

outro 2 (dist)
--------------------------------------------------|
----------------------5p0-------------------------|
-------2-2-2-2---2-2------5/7-------2-2-2-2---0-0-|
-------3-3-3-3---2-2----------------3-3-3-3---0-0-|
-0-0-0---------0--------------0-0-0---------0-----|
--------------------------------------------------|
               *                            *

outro 2 cont (dist)
-----------------------------------------------------------------|
-----------------------------5p0---------------------------------|
-5p0-----------2-2-2-2---2-2-----5/7-5-5-5-5-/-7-7-7-7-0-5p0-----|
-----5/7-------3-3-3-3---2-2---------5-5-5-5-/-7-7-7-7-------5/7-|
---------0-0-0---------0-------------3-3-3-3-/-5-5-5-5-----------|
-----------------------------------------------------------------|
                       *

outro 2 cont (dist)
--------------------------------------------------|
----------------------5p0-------------------------|
-------2-2-2-2---2-2------5/7-------2-2-2-2---0-0-|
-------3-3-3-3---2-2----------------3-3-3-3---0-0-|
-0-0-0---------0--------------0-0-0---------0-----|
--------------------------------------------------|
               *                            *

outro 2 cont (dist)
-----------------------------------------------------------------|
-----------------------------5p0---------------------------------|
-5p0-----------2-2-2-2---2-2-----5/7-5-5-5-5-/-7-7-7-7-0-5p0-----|
-----5/7-------3-3-3-3---2-2---------5-5-5-5-/-7-7-7-7-------5/7-|
---------0-0-0---------0-------------3-3-3-3-/-5-5-5-5-----------|
-----------------------------------------------------------------|
                       *

outro 3 w/wah-wah
---5---5-(5)\---5----------------------------------------|
-8---8--------5---------5--------------------------------|
------------------7-6---5---------6^-(6)---6-6^-(6)^-(6)-|
----------------------7---7-7-5h7--------7---------------|
---------------------------------------------------------|
---------------------------------------------------------|

outro 3 cont w/wah-wah
---5---5-(5)\---5-------------------------------------------|
-8---8--------5---------5-----------------------------------|
------------------7-6---5-----------6---6-7p6---6^-(6)^-(6)-|
----------------------7---7-7-5-5h7---7-------7-------------|
------------------------------------------------------------|
------------------------------------------------------------|

outro 3 cont w/wah-wah
-------5---5-(5)\---5-------------------------------|
-----8---8--------5---------------------------------|
-(6)------------------7-6---------------------------|
--------------------------7-5-7-7-5h7-5-5h7-5h7-5-5-|
----------------------------------------------------|
----------------------------------------------------|
                                                     repeat and fade
##############################################################################################
hollow low to high EbAbDbGbBbEb      i didnt put this in order you can pretty much
                                     tell what parts to play and when to play them
                                     it seems like it might not be right when you
                                     look at it but when you play it it sounds 100%
intro (acous)
-----0---0-0-0-----0-0-0-----0-0-0-----0-|
-1-3-0---0-0-0-----0-0-0-----0-0-0-1-3-0-|
-0-0-0---0-0-0-----0-0-0-----0-0-0-0-0-0-|
-2-0-2-2-2-2-2-2-2-2-2-2-2-2-2-2-2-2-0-2-|
-3-0-2-2-2-----2-2-------2-2-------3-0-2-|
-----0-0-0-----0-0-------0-0-----------0-|

verse (acous)
-----0-0-0-----0---0-0-0-------0-0-0-0-0-0-0--------0-0-----0---------|
-----0-0-0-1-3-3---3-3-3-------3-3-3-3-3-3-3--------3-3-----3-3-3-3-0-|
-----0-0-0-0-0-0-0-0-0-0-----0-0-0-0-0-0-0-0--------0-0-0---0-0-0-0-0-|
-2-2-2-2-2-2-0-2-2-2-----0h2-2-2-----2-2-2-2------------0h2---0-0-0-2-|
-2-2-------3-0-3-3-3-----0h3-3-------------3------------0h3---0-----2-|
-0-0----------------------------------------------------------------0-|
go ro stay         same old picture feels so hollow                 and

chorus (acous) (figure out the strumming part)
-0-(0)-0-0-0-0-0-0-0-0-0-0-0-0-0-0-0-0-0-0--0--0-(0)-0-0-0-0-0-0-0-0-0-0-0-0-0-0-0-0-0-0-0-0-|
-0-(0)-0-0-0-0-0-0-0-0-0-0-0-0-0-0-0-0-0-0--0--0-(0)-0-0-0-0-0-0-0-0-0-0-0-0-0-0-0-0-0-0-0-0-|
-6-(6)-6-6-6-6-6-6-6-6-6-6-6-6-6-6-6-6-6-6--4--2-(2)-2-2-2-2-2-2-2-2-2-2-2-2-2-2-2-2-2-2-2-2-|
-7-(7)-7-7-7-7-7-7-7-7-7-7-7-7-7-7-7-7-7-7--5--3-(3)-3-3-3-3-3-3-3-3-3-3-3-3-3-3-3-3-3-3-3-3-|
-7-(7)-7-7-7-7-7-7-7-7-7-7-7-7-7-7-7-7-7-7--5--3-(3)-3-3-3-3-3-3-3-3-3-3-3-3-3-3-3-3-3-3-3-3-|
-5-(5)-5-5-5-5-5-5-5-5-5-5-5-5-5-5-5-5-5-5--3--1-(1)-1-1-1-1-1-1-1-1-1-1-1-1-1-1-1-1-1-1-1-1-|

chorus cont (acous)
-0-0-0-0-0-(0)-0-0-0-0-0-0-0-0-0-0-0-0-0-0-0-0-0-0-0-0-0-0-(0)-0-0-0-0-0-0-0-0-0-0-0-0-0-0-0-0-|
-0-0-0-0-0-(0)-0-0-0-0-0-0-0-0-0-0-0-0-0-0-0-0-0-0-0-0-0-0-(0)-0-0-0-0-0-0-0-0-0-0-0-0-0-0-0-0-|
-4-4-4-4-6-(6)-6-6-6-6-6-6-6-6-6-6-6-6-6-6-6-6-6-6-6-2-2-2-(2)-2-2-2-2-2-2-2-2-2-2-2-2-2-2-2-2-|
-5-5-5-5-7-(7)-7-7-7-7-7-7-7-7-7-7-7-7-7-7-7-7-7-7-7-3-3-3-(3)-3-3-3-3-3-3-3-3-3-3-3-3-3-3-3-3-|
-5-5-5-5-7-(7)-7-7-7-7-7-7-7-7-7-7-7-7-7-7-7-7-7-7-7-3-3-3-(3)-3-3-3-3-3-3-3-3-3-3-3-3-3-3-3-3-|
-3-3-3-3-5-(5)-5-5-5-5-5-5-5-5-5-5-5-5-5-5-5-5-5-5-5-1-1-1-(1)-1-1-1-1-1-1-1-1-1-1-1-1-1-1-1-1-|

chorus cont (acous)
-0-0-0-0-0-0-0-0-0-0-(0)-0-0-0-0-0-0-0-0-0-(0)-0-0-0-0-0-0-0-0-0-0-0-(0)-0-0-0-0-0-0-0-0-0-0-(0)-|
-0-0-0-0-0-0-0-0-0-0-(0)-0-0-0-0-0-0-0-0-0-(0)-0-0-0-0-0-0-0-0-0-0-0-(0)-0-0-0-0-0-0-0-0-0-0-(0)-|
-2-2-2-2-2-2-2-4-4-4-(4)-4-4-4-4-4-4-4-4-2-(2)-2-2-2-2-2-2-4-4-4-4-6-(6)-6-6-6-6-6-6-6-6-6-6-(6)-|
-3-3-3-3-3-3-3-5-5-5-(5)-5-5-5-5-5-5-5-5-3-(3)-3-3-3-3-3-3-5-5-5-5-7-(7)-7-7-7-7-7-7-7-7-7-7-(7)-|
-3-3-3-3-3-3-3-5-5-5-(5)-5-5-5-5-5-5-5-5-3-(3)-3-3-3-3-3-3-5-5-5-5-7-(7)-7-7-7-7-7-7-7-7-7-7-(7)-|
-1-1-1-1-1-1-1-3-3-3-(3)-3-3-3-3-3-3-3-3-1-(1)-1-1-1-1-1-1-3-3-3-3-5-(5)-5-5-5-5-5-5-5-5-5-5-(5)-|

#################################################################################################################
no rest for the wicked (low to high) CGCFAD
                                            *=palm mute     /=slide down   o=open toe wahwah pedal
                                            p=pull off      \=slide up     +=closed toe wahwah pedal
                                            h=hammer on   p.s=pick scrape
intro (dist)                                T=trem pick     ^=bend
---------------------------------------------------------------------|
---------------------------------------------------------------------|
---------------------------------------------------------------------|
-------------------------------------------------------------3-----5-|
---5-5-------6-5---5-5-5-3p0-------5-5-------6-5---5-5-5-----3-----5-|
-0-----0-0-0-----0-----------6-5-0-----0-0-0-----0-------0-0-3-0-0-5-|
                                                         * *   * *

intro cont (dist)
---------------------------------------------------------------------|
---------------------------------------------------------------------|
---------------------------------------------------------------------|
-------------------------------------------------------------3-----5-|
---5-5-------6-5---5-5-5-3p0-------5-5-------6-5---5-5-5-----3-----5-|
-0-----0-0-0-----0-----------6-5-0-----0-0-0-----0-------0-0-3-0-0-5-|
                                                         * *   * *

intro 2 (dist)
----------------------------------------------------------------------|
----------------------------------------------------------------------|
----------------------------------------------------------------------|
---7-7-------8-7---7-7-7-----6-5---7-7-------8-7----7-7-7-----3-----5-|
---5-5-------6-5---5-5-5-3p0-6-5---5-5-------6-5----5-5-5-----3-----5-|
-0-----0-0-0-----0-----------6-5-0-----0-0-0------0-------0-0-3-0-0-5-|
                                                          * *   * *

verse (dist)
-----------------------------------------------------------------------------------|
-----------------------------------------------------------------------------------|
-----------------------------------------------------------------------------------|
-0-(0)---------------------------------0-(0)-----------------------------0-3-3-5-0-|
-0-(0)---5-5-------6-5---5-5-5-3p0-----0-(0)-------5-5-------6-5---5-5-5-0-3-3-5-0-|
-0-(0)-0-----0-0-0-----0-----------6-5-0-(0)-15\-0-----0-0-0-----0-------0-3-3-5-0-|

pre-chorus (dist)
---------------------------------------------------------------------------------------|
---------------------------------------------------------------------------------------|
---------------------------------------------------------------------------------------|
-5-5-5-5-5-0-0-3-3-5-5-5-5-5-5-5-5-5---7-7-------8-7---7-7-7-0-3-3-5-0-5-5-5-5-5-5-x-8-|
-5-5-5-5-5-0-0-3-3-3-3-3-3-3-3-3-3-3---5-5-------6-5---5-5-5-0-3-3-5-0-5-5-5-5-5-5-x-8-|
-5-5-5-5-5-0-0-3-3-3-3-3-3-3-3-3-3-3-0-----0-0-0-----0-------0-3-3-5-0-5-5-5-5-5-5-x-8-|

pre-chorus cont (dist)
----------------------------------|
----------------------------------|
----------------------------------|
-(8)-8-10-10-10-10-10-10-10-10-10-|
-(8)-8--8--8--8--8--8--8--8--8--8-|
-(8)-8--8--8--8--8--8--8--8--8--8-|

chorus (dist)
---------------------------------------------------------------------------------|
---------------------------------------------------------------------------------|
---------------------------------------------------------------------------------|
-12-14-14-14-14-14-14--10-10-12-12-12-12-12-12-12-12-12-12-8-10-10-10-10-10-0-10-|
-12-12-12-12-12-12-12--10-10-10-10-10-10-10-10-10-10-10-10-8--8--8--8--8--8-0-10-|
-12-12-12-12-12-12-12--10-10-10-10-10-10-10-10-10-10-10-10-8--8--8--8--8--8-0-10-|

chorus cont (dist)
---------------------------------------------------------------------------------|
---------------------------------------------------------------------------------|
---------------------------------------------------------------------------------|
-12-14-14-14-14-14-14-10-10-(10)-12-12-12-12-12-12-12-12-12-12-8-10-10-10-10---7-|
-12-12-12-12-12-12-12-10-10-(10)-10-10-10-10-10-10-10-10-10-10-8--8--8--8--8-0-7-|
-12-12-12-12-12-12-12-10-10-(10)-10-10-10-10-10-10-10-10-10-10-8--8--8--8--8-0-7-|
                                                                             *

intro 2 (dist)
----------------------------------------------------------------------|
----------------------------------------------------------------------|
----------------------------------------------------------------------|
---7-7-------8-7---7-7-7-----6-5---7-7-------8-7----7-7-7-----3-----5-|
---5-5-------6-5---5-5-5-3p0-6-5---5-5-------6-5----5-5-5-----3-----5-|
-0-----0-0-0-----0-----------6-5-0-----0-0-0------0-------0-0-3-0-0-5-|
                                                          * *   * *
intro 2 cont (dist)
----------------------------------------------------------------------|
----------------------------------------------------------------------|
----------------------------------------------------------------------|
---7-7-------8-7---7-7-7-----6-5---7-7-------8-7----7-7-7-----3-----5-|
---5-5-------6-5---5-5-5-3p0-6-5---5-5-------6-5----5-5-5-----3-----5-|
-0-----0-0-0-----0-----------6-5-0-----0-0-0------0-------0-0-3-0-0-5-|
                                                          * *   * *

verse (dist)
-----------------------------------------------------------------------------------|
-----------------------------------------------------------------------------------|
-----------------------------------------------------------------------------------|
-0-(0)---------------------------------0-(0)-----------------------------0-3-3-5-0-|
-0-(0)---5-5-------6-5---5-5-5-3p0-----0-(0)-------5-5-------6-5---5-5-5-0-3-3-5-0-|
-0-(0)-0-----0-0-0-----0-----------6-5-0-(0)-15\-0-----0-0-0-----0-------0-3-3-5-0-|

pre-chorus (dist)
---------------------------------------------------------------------------------------|
---------------------------------------------------------------------------------------|
---------------------------------------------------------------------------------------|
-5-5-5-5-5-0-0-3-3-5-5-5-5-5-5-5-5-5---7-7-------8-7---7-7-7-0-3-3-5-0-5-5-5-5-5-5-x-8-|
-5-5-5-5-5-0-0-3-3-3-3-3-3-3-3-3-3-3---5-5-------6-5---5-5-5-0-3-3-5-0-5-5-5-5-5-5-x-8-|
-5-5-5-5-5-0-0-3-3-3-3-3-3-3-3-3-3-3-0-----0-0-0-----0-------0-3-3-5-0-5-5-5-5-5-5-x-8-|

pre-chorus cont (dist)
----------------------------------|
----------------------------------|
----------------------------------|
-(8)-8-10-10-10-10-10-10-10-10-10-|
-(8)-8--8--8--8--8--8--8--8--8--8-|
-(8)-8--8--8--8--8--8--8--8--8--8-|

chorus (dist)
---------------------------------------------------------------------------------|
---------------------------------------------------------------------------------|
---------------------------------------------------------------------------------|
-12-14-14-14-14-14-14--10-10-12-12-12-12-12-12-12-12-12-12-8-10-10-10-10-10-0-10-|
-12-12-12-12-12-12-12--10-10-10-10-10-10-10-10-10-10-10-10-8--8--8--8--8--8-0-10-|
-12-12-12-12-12-12-12--10-10-10-10-10-10-10-10-10-10-10-10-8--8--8--8--8--8-0-10-|

chorus cont (dist)
---------------------------------------------------------------------------------|
---------------------------------------------------------------------------------|
---------------------------------------------------------------------------------|
-12-14-14-14-14-14-14-10-10-(10)-12-12-12-12-12-12-12-12-12-12-8-10-10-10-10---7-|
-12-12-12-12-12-12-12-10-10-(10)-10-10-10-10-10-10-10-10-10-10-8--8--8--8--8-0-7-|
-12-12-12-12-12-12-12-10-10-(10)-10-10-10-10-10-10-10-10-10-10-8--8--8--8--8-0-7-|
                                                                             *
chorus 2 (dist)
-----------------|
-----------------|
-----------------|
-7-7-7-7-7-7-7-7-|
-7-7-7-7-7-7-7-7-|
-7-7-7-7-7-7-7-7-|

bridge (w/wah-wah used as filter)
-------------------------------------------------|
-------------------------------------------------|
-------------------------------------------------|
-0-0-0-0-0-3-0-0-0-0-0-3-0-0-0-0-0-3-6-5-0-6-5-3-|
-0-0-0-0-0-3-0-0-0-0-0-3-0-0-0-0-0-3-6-5-0-6-5-3-|
-0-0-0-0-0-3-0-0-0-0-0-3-0-0-0-0-0-3-6-5-0-6-5-3-|

bridge cont (w/wah-wah used as filter)
----------------------------------------------|
----------------------------------------------|
-------------------------------------0--------|
-0-0-0-0-0-3-0-0-0-0-0-3-0-0-0-0-0-3-5--------|
-0-0-0-0-0-3-0-0-0-0-0-3-0-0-0-0-0-3----------|
-0-0-0-0-0-3-0-0-0-0-0-3-0-0-0-0-0-3---/-12-\-|

bridge cont (w/wah-wah used as filter)
-------------------------------------------------|
-------------------------------------------------|
-------------------------------------------------|
-0-0-0-0-0-3-0-0-0-0-0-3-0-0-0-0-0-3-6-5-0-6-5-3-|
-0-0-0-0-0-3-0-0-0-0-0-3-0-0-0-0-0-3-6-5-0-6-5-3-|
-0-0-0-0-0-3-0-0-0-0-0-3-0-0-0-0-0-3-6-5-0-6-5-3-|

bridge cont (w/wah-wah used as filter)
-------------------------------------------------|
-------------------------------------------------|
-------------------------------------------------|
-0-0-0-0-0-3-0-0-0-0-0-3-0-0-0-0-0-3-6-5-0-6-5-3-|
-0-0-0-0-0-3-0-0-0-0-0-3-0-0-0-0-0-3-6-5-0-6-5-3-|
-0-0-0-0-0-3-0-0-0-0-0-3-0-0-0-0-0-3-6-5-0-6-5-3-|

bridge cont (w/wah-wah used as filter)
-------------------------------------------------|
-------------------------------------------------|
-------------------------------------------------|
-0-0-0-0-0-3-0-0-0-0-0-3-0-0-0-0-0-3-6-5-0-6-5-3-|
-0-0-0-0-0-3-0-0-0-0-0-3-0-0-0-0-0-3-6-5-0-6-5-3-|
-0-0-0-0-0-3-0-0-0-0-0-3-0-0-0-0-0-3-6-5-0-6-5-3-|

bridge cont (w/wah-wah used as filter)
-----------------------------------------------|
-----------------------------------------------|
-----------------------------------------------|
-0-0-0-0-0-3-0-0-0-0-0-3-0-0-0-0-0-3-8---------|
-0-0-0-0-0-3-0-0-0-0-0-3-0-0-0-0-0-3-6--x------|
-0-0-0-0-0-3-0-0-0-0-0-3-0-0-0-0-0-3-6--x--12\-|
                                       p.s

solo w/wah-wah
------------10-10---------------------------------------------------------|
------------10-10---------------------------------------------------------|
-13-13^-13^-------13-13-13-13-13-13-13-13-13-13-13-13-13-13-10-10-10-10---|
------------------------------------------------------------------------0-|
--------------------------------------------------------------------------|
--------------------------------------------------------------------------|
 T  T   T   T   T  T  T  T  T  T  T  T  T  T  T  T  T  T  T  T  T  T  T T
 o              +     o  +     o  +  o  +  o  +  o  +     o  +  o  +  o +

solo cont w/wah-wah
-------10----10----10---------------10----10----10--10--(10)-10--10--10--10--10--10--10--10--10--10--10--10--|
----10----10----10-----13^-(13)--------10----10-10--10--(10)-10--10--10--10--10--10--10--10--10--10--10--10--|
-13-----------------------------12^-------------12^-12^-(12)-12^-12^-12^-12^-12^-12^-12^-12^-12^-12^-12^-12^-|
-------------------------------------------------------------------------------------------------------------|
-------------------------------------------------------------------------------------------------------------|
-------------------------------------------------------------------------------------------------------------|
                                              o  +        o  +   o    +   o   +   o   +   o    +   o  +   o
                                                 T           T

chorus (dist)
---------------------------------------------------------------------------------|
---------------------------------------------------------------------------------|
---------------------------------------------------------------------------------|
-12-14-14-14-14-14-14--10-10-12-12-12-12-12-12-12-12-12-12-8-10-10-10-10-10-0-10-|
-12-12-12-12-12-12-12--10-10-10-10-10-10-10-10-10-10-10-10-8--8--8--8--8--8-0-10-|
-12-12-12-12-12-12-12--10-10-10-10-10-10-10-10-10-10-10-10-8--8--8--8--8--8-0-10-|

chorus cont (dist)
---------------------------------------------------------------------------------|
---------------------------------------------------------------------------------|
---------------------------------------------------------------------------------|
-12-14-14-14-14-14-14-10-10-(10)-12-12-12-12-12-12-12-12-12-12-8-10-10-10-10---7-|
-12-12-12-12-12-12-12-10-10-(10)-10-10-10-10-10-10-10-10-10-10-8--8--8--8--8-0-7-|
-12-12-12-12-12-12-12-10-10-(10)-10-10-10-10-10-10-10-10-10-10-8--8--8--8--8-0-7-|
                                                                             *
chorus 2 (dist)
-----------------|
-----------------|
-----------------|
-7-7-7-7-7-7-7-7-|
-7-7-7-7-7-7-7-7-|
-7-7-7-7-7-7-7-7-|

outro (dist)
---------------------------------------------------------------------|
---------------------------------------------------------------------|
---------------------------------------------------------------------|
-------------------------------------------------------------3-----5-|
---5-5-------6-5---5-5-5-3p0-------5-5-------6-5---5-5-5-----3-----5-|
-0-----0-0-0-----0-----------6-5-0-----0-0-0-----0-------0-0-3-0-0-5-|
                                                         * *   * *

outro cont (dist)
---------------------------------------------------------------------|
---------------------------------------------------------------------|
---------------------------------------------------------------------|
-------------------------------------------------------------3-----5-|
---5-5-------6-5---5-5-5-3p0-------5-5-------6-5---5-5-5-----3-----5-|
-0-----0-0-0-----0-----------6-5-0-----0-0-0-----0-------0-0-3-0-0-5-|
                                                         * *   * *
##################################################################################################################
bleeding me (low to high) DADGBE
                                /=slide up    *=palm mute  h=hammer on
                                \=slide down  ^=bend
                                T=trem pick   p=pull off
intro (dist)
--------------------------------------------------------------|
--------------------------------------------------------------|
-----7-(7)/-10------10--------------------10------------------|
---7----7-/-10-10------10----------10---------10-----12-------|
-5----------------8-------8p0---8-----8-----------8-----8-----|
------------------------------8---------8-----------------8p0-|

intro cont (dist)                              when slide guitar starts
----------------------------------------------|-----------------------------------|
----------------------------------------------|-----------------------------------|
-----7-(7)/-10------10--------------------10--|---------7-(7)-/-10------10--------|
---7----7-/-10-10------10----------10---------|-------7----7--/-10-10------10-----|
-5----------------8-------8p0---8-----8-------|-0-0-5-----------------8-------8p0-|
------------------------------8---------8-----|-----------------------------------|

intro cont (dist)
--------------------------------|------------------|
--------------------------------|------------------|
--------------------------------|----------9-------|
-----10-----10-----10-----10----|-----9------9-----|
---8----8------8------8------8--|---7----------7---|
-8--------8------8------8------8|-7-----7--------7-|
                                 slide guiar ends

intro 2 (dist) w/slide you can do this if you want this is the slide guitar behind the intro
listen for the timeing to play it
--------------------------------|
--------------------------------|
-3-/-7-7-/-9-/-10-\--\3-(3)\----|
-----------------------------/7-|
--------------------------------|
--------------------------------|

intro 3 (dist)
---------|
---------|
---------|
-0-3-3-0-|
-0-3-3-0-|
-0-3-3-0-|
       *
guitar behind intro 4 (dist) play 3x 1/2
------------------------|-------------------------------------|
-3-3-3-3----------------|-------------------------------------|
-2-2-2-2----------------|-10-10-10-10-10-10-10-10-10-10-10-10-|
-0-0-0-0-0h3-3-3-3-3-3-3|-10-10-10-10-10-10-10-10-10-10-10-10-|
-0-0-0-0-0h3-3-3-3-3-3-3|--8--8--8--8--8--8--8--8--8--8--8--8-|
-0-0-0-0-0h3-3-3-3-3-3-3|--8--8--8--8--8--8--8--8--8--8--8--8-|


intro 4 (dist) w/slide
-3/10-10----10----10-----------------------------------------------------------------------|
---------10----10----10----10-------------------10-(10)\-----------------------------------|
------------------------10-----10\9/10-(10)\/10----------/12-(12)\-10-9/10-10/12-10--(10)\-|
-------------------------------------------------------------------------------------------|
-------------------------------------------------------------------------------------------|
-------------------------------------------------------------------------------------------|

intro 4 cont (dist) w/slide
-----10----10----10----10-10/13-(13)\10-10--------------------------------------------------------|
-/10----10----10----10---------------------10-----------------------------------------------------|
-----------------------------------------------10-(10)\9/10-9/10--/12-(12)\-10\9/10-9-10\-8-(8)\--|
--------------------------------------------------------------------------------------------------|
--------------------------------------------------------------------------------------------------|
--------------------------------------------------------------------------------------------------|

verse (dist)
---------------------------------------------------------|
---------------------------------------------------------|
---------------------------------------------------------|
-5/7-7-0-0-8\7-0-0-0-8\7-0-0-3/5-5-5-5-3/5-5-5-5-6\5-5-0-|
-3/5-5-0-0-6\5-0-0-0-6\5-0-0-3/5-5-5-5-3/5-5-5-5-6\5-5-0-|
-------0-0-----0-0-0-----0-0-3/5-5-5-5-3/5-5-5-5-6\5-5-0-|

verse cont (dist)
------------------------------------------------------------|
------------------------------------------------------------|
------------------------------------------------------------|
--5/7-7-0-0-8\7-0-0-0-8\7-7-7-7\5-5-5-5-5-5-5\3-3-3-3/5-5-5-|
--3/5-5-0-0-6\5-0-0-0-6\5-5-5-5\3-3-3-3-3-3-3\1-1-1-1/3-3-3-|
--------0-0-----0-0-0---------------------------------------|

verse cont (dist)
----------------------------------------------------------|
----------------------------------------------------------|
----------------------------------------------------------|
-5/7-7-0-0-8\7-0-0-0-8\7-0-0-3/5-5-5-5-3/5-5-5-5-6\5-5-5/-|
-3/5-5-0-0-6\5-0-0-0-6\5-0-0-3/5-5-5-5-3/5-5-5-5-6\5-5-5/-|
-------0-0-----0-0-0-----0-0-3/5-5-5-5-3/5-5-5-5-6\5-5-5/-|

pre-chorus (dist)
---------------------------------------------------------------------|
------------------------------------------12-12-12-12-12-12-0--------|
---10-10-10---10-10-10-10-10-10-----------12-12-12-12-12-12-0--------|
-8-10-10-10-8-10-10-10-10-10-10-----------12-12-12-12-12-12---0-3-3\-|
-8--8--8--8-8--8--8--8--8--8--8--8/-10-10-10-10-10-10-10-10---0-3-3\-|
-8--8--8--8-8--8--8--8--8--8--8--8/-10-10-10-10-10-10-10-10---0-3-3\-|

chorus (dist) 2x
-------------------------------------------------------------|
-3-3-3-3-----------------------------------------------------|
-2-2-2-2-----------------10-10-10-10-10-10-10-10-10-10-10-10-|
-0-0-0-0-0h3-3-3-3-3-3-3-10-10-10-10-10-10-10-10-10-10-10-10-|
-0-0-0-0-0h3-3-3-3-3-3-3--8--8--8--8--8--8--8--8--8--8--8--8-|
-0-0-0-0-0h3-3-3-3-3-3-3--8--8--8--8--8--8--8--8--8--8--8--8-|

chorus cont (dist)
----------------------------------------|
-3-3-3-3-------------------9-9-9-9------|
-2-2-2-2-----------------9-9-9-9-9------|
-0-0-0-0-0h3-3-3-3-3-3-3-9-9-9-9-9------|
-0-0-0-0-0h3-3-3-3-3-3-3-7-7-7-7-7------|
-0-0-0-0-0h3-3-3-3-3-3-3-7-7-7-7-7-/14\-|

verse (dist)
---------------------------------------------------------|
---------------------------------------------------------|
---------------------------------------------------------|
-5/7-7-0-0-8\7-0-0-0-8\7-0-0-3/5-5-5-5-3/5-5-5-5-6\5-5-0-|
-3/5-5-0-0-6\5-0-0-0-6\5-0-0-3/5-5-5-5-3/5-5-5-5-6\5-5-0-|
-------0-0-----0-0-0-----0-0-3/5-5-5-5-3/5-5-5-5-6\5-5-0-|

verse cont (dist)
------------------------------------------------------------|
------------------------------------------------------------|
------------------------------------------------------------|
--5/7-7-0-0-8\7-0-0-0-8\7-7-7-7\5-5-5-5-5-5-5\3-3-3-3/5-5-5-|
--3/5-5-0-0-6\5-0-0-0-6\5-5-5-5\3-3-3-3-3-3-3\1-1-1-1/3-3-3-|
--------0-0-----0-0-0---------------------------------------|

verse cont (dist)
----------------------------------------------------------|
----------------------------------------------------------|
----------------------------------------------------------|
-5/7-7-0-0-8\7-0-0-0-8\7-0-0-3/5-5-5-5-3/5-5-5-5-6\5-5-5/-|
-3/5-5-0-0-6\5-0-0-0-6\5-0-0-3/5-5-5-5-3/5-5-5-5-6\5-5-5/-|
-------0-0-----0-0-0-----0-0-3/5-5-5-5-3/5-5-5-5-6\5-5-5/-|

pre-chorus (dist)
---------------------------------------------------------------------|
------------------------------------------12-12-12-12-12-12-0--------|
---10-10-10---10-10-10-10-10-10-----------12-12-12-12-12-12-0--------|
-8-10-10-10-8-10-10-10-10-10-10-----------12-12-12-12-12-12---0-3-3\-|
-8--8--8--8-8--8--8--8--8--8--8--8/-10-10-10-10-10-10-10-10---0-3-3\-|
-8--8--8--8-8--8--8--8--8--8--8--8/-10-10-10-10-10-10-10-10---0-3-3\-|

chorus (dist) 2x
-------------------------------------------------------------|
-3-3-3-3-----------------------------------------------------|
-2-2-2-2-----------------10-10-10-10-10-10-10-10-10-10-10-10-|
-0-0-0-0-0h3-3-3-3-3-3-3-10-10-10-10-10-10-10-10-10-10-10-10-|
-0-0-0-0-0h3-3-3-3-3-3-3--8--8--8--8--8--8--8--8--8--8--8--8-|
-0-0-0-0-0h3-3-3-3-3-3-3--8--8--8--8--8--8--8--8--8--8--8--8-|

chorus 2 (dist)
---------------------------------------------------------------|
-3-3-3-3-------------------11-11-11----------------------------|
-2-2-2-2-------------------10-10-10-10-10-10-10-10-10-10-10-10-|
-0-0-0-0-0h3-3-3-3-3-3-3----8--8--8-10-10-10-10-10-10-10-10-10-|
-0-0-0-0-0h3-3-3-3-3-3-3-8--8--8--8--8--8--8--8--8--8--8--8--8-|
-0-0-0-0-0h3-3-3-3-3-3-3-8--8--8--8--8--8--8--8--8--8--8--8--8-|

chorus 2 cont (dist)
-------------------------|
-3-3-3-3-----------------|
-2-2-2-2---------------3-|
-0-0-0-0-0h3-3-3-3-3-3-3-|
-0-0-0-0-0h3-3-3-3-3-3-1-|
-0-0-0-0-0h3-3-3-3-3-3-1-|

interlude (dist)
--------------------------------------------------------------|
--------------------------------------------------------------|
-----7-(7)/-10------10--------------------10------------------|
---7----7-/-10-10------10----------10---------10-----12-------|
-5----------------8-------8p0---8-----8-----------8-----8-----|
------------------------------8---------8-----------------8p0-|

interlude cont (dist)
-------------------------------------------------|
-------------------------------------------------|
-----7-(7)/-10------10--------------------10-----|
---7----7-/-10-10------10----------10------------|
-5----------------8-------8p0---8-----8------0-0-|
------------------------------8---------8--------|

interlude cont (dist)
--------------------------------------------------------------|
--------------------------------------------------------------|
-----7-(7)/-10------10--------------------10------------------|
---7----7-/-10-10------10----------10---------10-----12-------|
-5----------------8-------8p0---8-----8-----------8-----8-----|
------------------------------8---------8-----------------8p0-|

interlude cont (dist)
----------------------------------------------------------------------------|
----------------------------------------------------------------------------|
-----7-(7)/-10------10------------------------------------------------------|
---7----7-/-10-10------10------10-10-10-10-10-10-10-10-10-10-10-10-10-10-10-|
-5----------------8--------8p0--8--8--8--8--8--8--8--8--8--8--8--8--8--8--8-|
--------------------------------8--8--8--8--8--8--8--8--8--8--8--8--8--8--8-|

solo w/slide
-----10-10\-/10-10-10\-/10-/10-/10-10-10--------------------10-10-------------------------|
-/10-10-10\-/10-10-10\-/10-/10-/10-10-10-9-(9)/10-10-----10-------8/10-(10)\8-8/10--------|
-/10----------------------------------------------10-/10---------------------------9-9/10-|
------------------------------------------------------------------------------------------|
------------------------------------------------------------------------------------------|
------------------------------------------------------------------------------------------|
      T          T

solo cont w/slide
--------------------8/10\8-/13-10-(10)\-12/13-12/13\12-12\10-10-(10)\--------------10-10--------|
----------------/10---------------------------------------------------x\-----10-10-------10-----|
-------------------------------------------------------------------------/10-----------------10-|
-10-10-10-(10)\---------------------------------------------------------------------------------|
------------------------------------------------------------------------------------------------|
------------------------------------------------------------------------------------------------|

solo cont w/slide
-10-------10-------10-----/8/12\10-10-----------------------|
----10-------10-------10\-------------10-10-(10)\9/10---10\-|
-------10-------10-----------------------10-(10)\9/10---10\-|
------------------------------------------------------------|
------------------------------------------------------------|
------------------------------------------------------------|

outro chorus (dist)
-----------------------------------------------------|
-----------------------------------------------------|
-----------------10-10-10-10-10-10-10-10-10-10-10-10-|
-0h3-3-3-3-3-3-3-10-10-10-10-10-10-10-10-10-10-10-10-|
-0h3-3-3-3-3-3-3--8--8--8--8--8--8--8--8--8--8--8--8-|
-0h3-3-3-3-3-3-3--8--8--8--8--8--8--8--8--8--8--8--8-|

outro chorus cont (dist) 3x
-------------------------------------------------------------|
-3-3-3-3-----------------------------------------------------|
-2-2-2-2-----------------10-10-10-10-10-10-10-10-10-10-10-10-|
-0-0-0-0-0h3-3-3-3-3-3-3-10-10-10-10-10-10-10-10-10-10-10-10-|
-0-0-0-0-0h3-3-3-3-3-3-3--8--8--8--8--8--8--8--8--8--8--8--8-|
-0-0-0-0-0h3-3-3-3-3-3-3--8--8--8--8--8--8--8--8--8--8--8--8-|


outro 2 (dist) w/slide
-3/10-10----------10----10----10-----------------------------------------------------------------------|
---------10----10----10----10----10----10------------------10-(10)\------------------------------------|
------------------------------------10----10\9/10-(10)\/10----------/12-(12)\-10-9/10-10/12-10--(10)\--|
-------------------------------------------------------------------------------------------------------|
-------------------------------------------------------------------------------------------------------|
-------------------------------------------------------------------------------------------------------|

outro 2 cont (dist) w/slide
-----10----10----10----10-10/13-(13)\10-10-----------------------------------------------|--------|
-/10----10----10----10---------------------10--------------------------------------------|--------|
-----------------------------------------------10-(10)\9/10-9/10--/12-(12)\-10\9/10-9-10\|-8-(8)\-|
-----------------------------------------------------------------------------------------|--------|
-----------------------------------------------------------------------------------------|--------|
-----------------------------------------------------------------------------------------|--------|
                                                                                          w/delay

######################################################################################################################
voodoo too (low to high) DADGBE
this song is not in order it skips to       *=palm mute     /=slide down   o=open toe wahwah pedal
interlude after the chorus and then the     p=pull off      \=slide up     +=closed toe wahwah pedal
solo                                        h=hammer on   p.s=pick scrape
intro (clean)  w/wah-wah                    T=trem pick     ^=bend
--------------|                             <>=harmonics  fdbk=feed back
--------------|
--------------|
-0-0--(0)-----|
------------0-|
--------------|
   o  fdbk
       +

intro 2 (clean) w/wah-wah
--13-(13)-(13)-(13)-(13)-(13)-12-(12)-(12)-(12)-(12)---------------------------------------------------------------------|
-----------------------------------------------------13-(13)-(13)-(13)-(13)-(13)-(13)-(13)-(13)-(13)-(13)-(13)-(13)-(13)-|
-------------------------------------------------------------------------------------------------------------------------|
-------------------------------------------------------------------------------------------------------------------------|
-------------------------------------------------------------------------------------------------------------------------|
-------------------------------------------------------------------------------------------------------------------------|
o  +   o    +    o    +    o   +   o    +    o    +       o    +    o    +    o    +    o    +    o    +    O    +

intro 3 (clean) w/wah-wah
------------10-------10----10-------------------------------------|
-(13)\-8/10----10-10----10----10----------------------------------|
------------------------------------10-12-10-(10)^----------------|
---------------------------------12----------------12-10-12-(12)\-|
------------------------------------------------------------------|
------------------------------------------------------------------|
                               o                              +

verse (dist) 4x
-------------0-------------|
-----3-----3---3-----------|
---1-----1-----------------|
-------------------3---3---|
-------------------------3-|
-0-----0---------3---3-----|

verse cont (dist)
-----------------------------------------------------|
-----------------------------------------------------|
-----------10------------------------9---------------|
-----10---------10---10---10-----9-------9-3-3-3-3-3-|
---8----8-----8----8----8------7---7---7---3-3-3-3-3-|
-8---------------------------7-------------3-3-3-3-3-|

chorus (dist)
----------------------------------------------------|
----------------------------------------------------|
----------------------------------------------------|
----------------------------------------------------|
-------------5---------------5---5-----5------------|
-0-0-3-2-0-0---0-3-2-0-2-3-3---3---3-2----2-2-3-2-0-|

interlude (dist) w/wah-wah
--10--------------------------10----10---------------------------------------------|
--10--------------------10-13----13----13-10-10----10------------------------------|
--10-----------------10-------------------------12----12-10h12-(12)-10^--------<7>-|
------------------------------------------------------------------------12-<7>-----|
-----------------------------------------------------------------------------------|
-----------------------------------------------------------------------------------|
o  + o + o + o + o +  o

interlude 2 (dist) w/wah-wah
------------------|
------------------|
------------------|
-(0)---(0)----(0)-|
------------------|
------------------|
 fdbk         fdbk

solo w/wah-wah
----------------------------------------------------------------------------------------|
----------------------------------------------------------------------------------------|
----------------------------------------10----------------------------------------------|
-10-10-10h12-12-(12)\-10-10-10-10-10h12----12-10h12-10-10-9-9---------------------------|
--------------------------------------------------------------11^-11^-(11)-(11)-(11)\5\-|
----------------------------------------------------------------------------------------|
                       *  *

solo cont w/wah-wah
------------------------------------------------------------------------|
----------10------------------------------------------------------------|
----10-12----13-12-10----------12^-(12)-10----10^-10-(10)\-12^-(12)^-12-|
-12-------------------12-(12)\-------------12---------------------------|
------------------------------------------------------------------------|
------------------------------------------------------------------------|

solo cont w/wah-wah
-----------------------------------------------------------------------------------------|
-10----------------10----13p10----10-----------------------------------------------------|
----13-12-10-12-13----13-------13----13p12-10----12p10----10^-10-------------------------|
----------------------------------------------12-------12--------12p10----10-12-10-(12)\-|
-----------------------------------------------------------------------12----------------|
-----------------------------------------------------------------------------------------|

solo cont w/wah-wah
-----------10----------------10-----------------------------------10-----10----------------|
-13^-(13)^----13-10-13p10-------13p10------------------------------------------------------|
--------------------------13----------12h13p12p10----10-12^-(12)^-----12----12p10----10----|
--------------------------------------------------12------------------------------12----12-|
-------------------------------------------------------------------------------------------|
-------------------------------------------------------------------------------------------|

solo cont w/wah-wah
------------------12^-12-10----------------10-----10-------------------------------------------|
----------------------------13-10h13p10--------------------------------------------------------|
-10h12-10-(10)\5\-----------------------13-----13----13p12p10----10-12^-(12)-10-12-13-13p12-10-|
--------------------------------------------------------------12-------------------------------|
-----------------------------------------------------------------------------------------------|
-----------------------------------------------------------------------------------------------|
                                                                                    T
solo cont w/wah-wah
-----------------------------------------------------------------------------------------------------|
-----------------------------------------------------------13----13-13-15^-(15)^-(15)-13-15-15^-(15)-|
-13-12-10-13-12-10-13-12p10----10-12p10----10----------/14----14-------------------------------------|
----------------------------12----------12----12-(12)\-----------------------------------------------|
-----------------------------------------------------------------------------------------------------|
-----------------------------------------------------------------------------------------------------|
  T  T  T  T  T  T  T

solo cont w/wah-wah
-----------------10----10-12-12^-12^-(12)p10-12-10-12-10------------------------------------------|
-(15)\-13^-(13)^----13-----------------------------------13^-13^--(13)-----------------(13)-------|
--------------------------------------------------------------------------------------------------|
--------------------------------------------------------------------------------------------------|
--------------------------------------------------------------------------------------------------|
--------------------------------------------------------------------------------------------------|
                                                                  w/bar  o + o + o + o   + o + o +

solo cont w/wah-wah
-----------------------|
-(13)\10\8-0-0---------|
-----------0-0---------|
-----------0-0-(0)-(0)-|
-----------------------|
-----------------------|
               fdbk---

chorus 2 end   chorus 2 is the same as the chorus
------------------|
------------------|
------------------|
---------/3-/3-/3-|
-----5---/3-/3-/3-|
-(2)---2-/3-/3-/3-|

outro
------------0-0-0---------------------------|
------3-(3)-------3-----3-(3)----3------3---|
----1---------------1--------------1---1--1-|
-0--------------------0-------0-------------|
--------------------------------------------|
-------------------------------------0------|

############################################################################################################################
temptation (low to high) DADGBE
                                   *=palm mute     /=slide down   o=open toe wahwah pedal
                                   p=pull off      \=slide up     +=closed toe wahwah pedal
                                   h=hammer on   p.s=pick scrape  fdbk=feed back
                                   T=trem pick     ^=bend
intro (dist)
-------------------------------------------------------------|
-------------------------------------------------------------|
-------------------------------------------------------------|
-------------------------------------------------------------|
-------------------------------------------------------------|
-0-0-0-3^p0-0-3^p0-0-0-0-6-6-6-0-0-0-3^p0-0-3^p0-0-0-0-1h3-1-|

intro 2 (dist)
----------------------------------------------|
----------------------------------------------|
----------------------------------------------|
------------------------------------------0-3-|
------------------------------------------0-3-|
-0-0-0-3^p0-0-3^p0-0-0-0-6-6-6-0-0-0-3^p0-0-3-|

intro 3 (dist)
-------------------------------------------------------------|
-------------------------------------------------------------|
-------------------------------------------------------------|
-------------------------6-6-6-------------------------------|
-------------------------6-6-6-------------------------------|
-0-0-0-3^p0-0-3^p0-0-0-0-6-6-6-0-0-0-3^p0-0-3^p0-0-0-0-1h3-1-|

intro 4 (dist)
-----------------------------------------------------------|
-----------------------------------------------------------|
-------------------------------------------------------8-8-|
-------------------------6-6-6-------------------------7-7-|
-------------------------6-6-6-------------------------6-6-|
-0-0-0-3^p0-0-3^p0-0-0-0-6-6-6-0-0-0-3^p0-0-3^p0-0-0-0-----|

intro 5 (dist)
-------------------------------------------------------------|
-------------------------------------------------------------|
-------------------------------------------------------------|
-------------------------6-6-6-------------------------------|
-------------------------6-6-6-------------------------------|
-0-0-0-3^p0-0-3^p0-0-0-0-6-6-6-0-0-0-3^p0-0-3^p0-0-0-0-1h3-1-|

intro 6 (dist)
----------------------------------------------------------|
----------------------------------------------------------|
-----------------------------------8-----8-----8----------|
-------------------------6-6-6-----7-----7-----7----------|
-------------------------6-6-6-----6-----6-----6----------|
-0-0-0-3^p0-0-3^p0-0-0-0-6-6-6-0-0---0-0---0-0---0-0-/12\-|
                               * *   * *   * *   * *

verse (dist)
--------------------------------------------------------------|
----------------------------------------3---------------------|
-7--(7)--7/-x---5-5---------------------2-x---5-5-(5)/-8-8\-0-|
-x-------7/-x-0-x-x-0-6-6-6-6---------0-0-x-0-5-5-(5)/-8-8\-0-|
-5--(5)--5/-x-0-3-3-0-6---6-----------0-0-x-0-3-3-(3)/-6-6\-0-|
----------------------6---6---0-3^-3^-0-0---------------------|
    fdbk

pre-chorus w/wah-wah
-------------------------------------------------------------------------------------------------|
-------------------------------------------------------------------------------------------------|
-------------------------------------------------------------------------------------------------|
-x-x-x-x-(x)-x-x-x-x-x-(x)-x-x-x-x-x-(x)-x-x-x-x-x-(x)-x-(x)-x-x-x-x-(x)-x-x-x-x-x-(x)-x-x-x-x-x-|
-x-x-x-x-(x)-x-x-x-x-x-(x)-x-x-x-x-x-(x)-x-x-x-x-x-(x)-x-(x)-x-x-x-x-(x)-x-x-x-x-x-(x)-x-x-x-x-x-|
-x-x-x-x-(x)-x-x-x-x-x-(x)-x-x-x-x-x-(x)-x-x-x-x-x-(x)-x-(x)-x-x-x-x-(x)-x-x-x-x-x-(x)-x-x-x-x-x-|
 + o   +  o  +   o   +  o  +   o   +  o  +   o   +  o  +       o   +  o  +   o   +  o  +   o   +
pre-chorus cont w/wah-wah
--------------------------------------------------|
--------------------------------------------------|
--------------------------------------------------|
-(x)-x-x-x-x-x-(x)-x--x-x-x-x-x-x-x-x-x-x-x-x-----|
-(x)-x-x-x-x-x-(x)-x--x-x-x-x-x-x-x-x-x-x-x-x-----|
-(x)-x-x-x-x-x-(x)-x--x-x-x-x-x-x-x-x-x-x-x-x-15\-|
  o  +   o   +  o  +
chorus (dist)
-------------------------------------------------------------|
-------------------------------------------------------------|
-------------------------------------------------------------|
-------------------------6-6-6-------------------------6-6-6-|
-------------------------6-6-6-------------------------6-6-6-|
-0-0-0-3^p0-0-3^p0-0-0-0-6-6-6-0-0-0-3^p0-0-3^p0-0-0-0-6-6-6-|

chorus cont (dist)
---------------------------------|
---------------------------------|
-5-5-5-5-5-5-x-------------------|
-5-5-5-5-5-5-x-6-6-6-6-6-6-6-6-6-|
-3-3-3-3-3-3-x-6-6-6-6-6-6-6-6-6-|
---------------6-6-6-6-6-6-6-6-6-|

chorus cont (dist)
--------------------------------------------------------------------|
--------------------------------------------------------------------|
--------------------------------------------------------------5-----|
-------------------------6-6-6-------------------------6-6-6--5--6--|
-------------------------6-6-6-------------------------6-6-6--3--6--|
-0-0-0-3^p0-0-3^p0-0-0-0-6-6-6-0-0-0-3^p0-0-3^p0-0-0-0-6-6-6-----6--|

verse 2 (dist)
--------------------------------0-------------------------|
-3------------------------------3-3-----------------------|
-2------5-5---------------------2---2---5-5-5-x-x-8-8-x-x-|
-0--x\--x-x-0-6-6-6-6---------0-----0---x-x-x-x-x-x-x-x-x-|
-0--x\--3-3-0-6-6-6-6---------0-------0-3-3-3-x-x-6-6-x-x-|
-0--x\------0-6-6-6-6-0-3^-3^-0---------------------------|
   p.s

pre-chorus w/wah-wah
-------------------------------------------------------------------------------------------------|
-------------------------------------------------------------------------------------------------|
-------------------------------------------------------------------------------------------------|
-x-x-x-x-(x)-x-x-x-x-x-(x)-x-x-x-x-x-(x)-x-x-x-x-x-(x)-x-(x)-x-x-x-x-(x)-x-x-x-x-x-(x)-x-x-x-x-x-|
-x-x-x-x-(x)-x-x-x-x-x-(x)-x-x-x-x-x-(x)-x-x-x-x-x-(x)-x-(x)-x-x-x-x-(x)-x-x-x-x-x-(x)-x-x-x-x-x-|
-x-x-x-x-(x)-x-x-x-x-x-(x)-x-x-x-x-x-(x)-x-x-x-x-x-(x)-x-(x)-x-x-x-x-(x)-x-x-x-x-x-(x)-x-x-x-x-x-|
 + o   +  o  +   o   +  o  +   o   +  o  +   o   +  o  +       o   +  o  +   o   +  o  +   o   +
pre-chorus cont w/wah-wah
--------------------------------------------------|
--------------------------------------------------|
--------------------------------------------------|
-(x)-x-x-x-x-x-(x)-x--x-x-x-x-x-x-x-x-x-x-x-x-----|
-(x)-x-x-x-x-x-(x)-x--x-x-x-x-x-x-x-x-x-x-x-x-----|
-(x)-x-x-x-x-x-(x)-x--x-x-x-x-x-x-x-x-x-x-x-x-15\-|
  o  +   o   +  o  +
pre chorus 2 (dist)
-------------------------------------------------------------------|
-------------------------------------------------------------------|
-------------------------------------5-5-5-5-5---------------------|
-6-6-6-6---------0-0-(0)-(0)-(0)-0-0-5-5-5-5-5-(x)-x-x-x-x---------|
-6---6-----------0-0-(0)-(0)-(0)-0-0-3-3-3-3-3-(x)-x-x-x-x-<4>-----|
-6---6---0-3^-3^-0-0-(0)-(0)-(0)-0-0-----------(x)-x-x-x-x-----12\-|
                                                +    o   +  o

chorus (dist)
-------------------------------------------------------------|
-------------------------------------------------------------|
-------------------------------------------------------------|
-------------------------6-6-6-------------------------6-6-6-|
-------------------------6-6-6-------------------------6-6-6-|
-0-0-0-3^p0-0-3^p0-0-0-0-6-6-6-0-0-0-3^p0-0-3^p0-0-0-0-6-6-6-|

chorus cont (dist)
---------------------------------|
---------------------------------|
-5-5-5-5-5-5-x-------------------|
-5-5-5-5-5-5-x-6-6-6-6-6-6-6-6-6-|
-3-3-3-3-3-3-x-6-6-6-6-6-6-6-6-6-|
---------------6-6-6-6-6-6-6-6-6-|

chorus cont (dist)
-------------------------------------------------------------|
-------------------------------------------------------------|
-------------------------------------------------------------|
-------------------------6-6-6-------------------------6-6-6-|
-------------------------6-6-6-------------------------6-6-6-|
-0-0-0-3^p0-0-3^p0-0-0-0-6-6-6-0-0-0-3^p0-0-3^p0-0-0-0-6-6-6-|

chorus cont (dist)
---------------------------------|
---------------------------------|
-5-5-5-5-5-5-x-------------------|
-5-5-5-5-5-5-x-6-6-6-6-6-6-6-6-6-|
-3-3-3-3-3-3-x-6-6-6-6-6-6-6-6-6-|
---------------6-6-6-6-6-6-6-6-6-|

chorus cont (dist)
-------------------------------------------------------------|
-------------------------------------------------------------|
-------------------------------------------------------------|
-------------------------6-6-6-------------------------6-6-6-|
-------------------------6-6-6-------------------------6-6-6-|
-0-0-0-3^p0-0-3^p0-0-0-0-6-6-6-0-0-0-3^p0-0-3^p0-0-0-0-6-6-6-|

chorus cont (dist)
---------------------------------|
---------------------------------|
-5-5-5-5-5-5-x-------------------|
-5-5-5-5-5-5-x-6-6-6-6-6-6-6-6-6-|
-3-3-3-3-3-3-x-6-6-6-6-6-6-6-6-6-|
---------------6-6-6-6-6-6-6-6-6-|

chorus 2 (dist)
--------------------------------------------------------------------------|
--------------------------------------------------------------------------|
--------------------------------------------------------------5-----------|
-------------------------6-6-6-------------------------6-6-6--5--6--6-3-3-|
-------------------------6-6-6-------------------------6-6-6--3--6--6-3-3-|
-0-0-0-3^p0-0-3^p0-0-0-0-6-6-6-0-0-0-3^p0-0-3^p0-0-0-0-6-6-6-----6--6-3-3-|
                                                                      * *

interlude 1 (dist)-theres 2 interludes played together i will put both
-------------------------------------------------------------------|
-------------------------------------------------------------------|
-7-7-7-7-7-7-10-10-10-10-10-10-12-12-12-12-12-12-15-15-15-15-15-15-|
-x-x-x-x-x-x--x--x--x--x--x--x--x--x--x--x--x--x--x--x--x--x--x--x-|
-5-5-5-5-5-5--8--8--8--8--8--8-10-10-10-10-10-10-13-13-13-13-13-13-|
-------------------------------------------------------------------|

interlude 2 (dist) this is played behind interlude 1 as rythem guitar
-------------------------------------------------|
-------------------------------------------------|
-7-7-7-7-7-7-5-5-5-5-5-5-3-3-3-3-3-3-8-8-8-8-8-8-|
-x-x-x-x-x-x-x-x-x-x-x-x-x-x-x-x-x-x-x-x-x-x-x-x-|
-5-5-5-5-5-5-3-3-3-3-3-3-1-1-1-1-1-1-6-6-6-6-6-6-|
-------------------------------------------------|

interlude 3 (dist)-theres 2 interludes played together i will put both
----------------------------------------------------------------|
----------------------------------------------------------------|
-7-7-7-7-7-7-10-10-10-10-10-10-12-12-12-12-12-12-8-8-8-8-/-10-8-|
-x-x-x-x-x-x--x--x--x--x--x--x--x--x--x--x--x--x-x-x-x-x----x-x-|
-5-5-5-5-5-5--8--8--8--8--8--8-10-10-10-10-10-10-6-6-6-6-/--8-6-|
----------------------------------------------------------------|

interlude 4 (dist) this is played behind interlude 3 as rythem guitar
----------------------------------------------------|
----------------------------------------------------|
-7-7-7-7-7-7-5-5-5-5-5-5-3-3-3-3-3-3-8-8-8-8-/-10-8-|
-x-x-x-x-x-x-x-x-x-x-x-x-x-x-x-x-x-x-x-x-x-x----x-x-|
-5-5-5-5-5-5-3-3-3-3-3-3-1-1-1-1-1-1-6-6-6-6-/--8-6-|
----------------------------------------------------|

the interludes are played 3x altogether and this is the part that starts when you play the
interlude the secound time you can here it

fill 1 w/wah-wah
-----------|
-----------|
-----------|
-----------|
-----------|
-3/0-3-5-1-|

interlude 4 end 3 rd time (dist)
-----------------------------------------------------------------|
-----------------------------------------------------------------|
-8-8-8-8-8-------------------------------7-7-7-7-7-7-7-7-7-7-7-7-|
-x-x-x-x-x-8\-0-0-0-0-0-0-0-0----0-0-0-0-7-7-7-7-7-7-7-7-7-7-7-7-|
-6-6-6-6-6----0-0-0-0-0-0-0-0----0-0-0-0-5-5-5-5-5-5-5-5-5-5-5-5-|
--------------0-0-0-0-0-0-0-0----0-0-0-0-------------------------|
              * * * * * * * *
              gradually lift pm

interlude 4 cont (dist)
---------------------------------------------------------------|
---------------------------------------------------------------|
---------------------------------------------------------------|
-------------------------------------------------------3p0-0-3-|
-------------------------------------------------------3p0-0-3-|
-0-0-0-3^p0-0-3^p0-0-0-0-6-6-6-0-0-0-3^p0-0-3^p0-0-0-0-3p0-0-3-|

chorus (dist)
-------------------------------------------------------------|
-------------------------------------------------------------|
-------------------------------------------------------------|
-------------------------6-6-6-------------------------6-6-6-|
-------------------------6-6-6-------------------------6-6-6-|
-0-0-0-3^p0-0-3^p0-0-0-0-6-6-6-0-0-0-3^p0-0-3^p0-0-0-0-6-6-6-|

chorus cont (dist)
---------------------------------|
---------------------------------|
-5-5-5-5-5-5-x-------------------|
-5-5-5-5-5-5-x-6-6-6-6-6-6-6-6-6-|
-3-3-3-3-3-3-x-6-6-6-6-6-6-6-6-6-|
---------------6-6-6-6-6-6-6-6-6-|

chorus cont (dist)
-------------------------------------------------------------|
-------------------------------------------------------------|
-------------------------------------------------------------|
-------------------------6-6-6-------------------------6-6-6-|
-------------------------6-6-6-------------------------6-6-6-|
-0-0-0-3^p0-0-3^p0-0-0-0-6-6-6-0-0-0-3^p0-0-3^p0-0-0-0-6-6-6-|

chorus cont (dist)
---------------------------------|
---------------------------------|
-5-5-5-5-5-5-x-------------------|
-5-5-5-5-5-5-x-6-6-6-6-6-6-6-6-6-|
-3-3-3-3-3-3-x-6-6-6-6-6-6-6-6-6-|
---------------6-6-6-6-6-6-6-6-6-|

chorus cont (dist)
-------------------------------------------------------------|
-------------------------------------------------------------|
-------------------------------------------------------------|
-------------------------6-6-6-------------------------6-6-6-|
-------------------------6-6-6-------------------------6-6-6-|
-0-0-0-3^p0-0-3^p0-0-0-0-6-6-6-0-0-0-3^p0-0-3^p0-0-0-0-6-6-6-|

chorus cont (dist)
---------------------------------|
---------------------------------|
-5-5-5-5-5-5-x-------------------|
-5-5-5-5-5-5-x-6-6-6-6-6-6-6-6-6-|
-3-3-3-3-3-3-x-6-6-6-6-6-6-6-6-6-|
---------------6-6-6-6-6-6-6-6-6-|

chorus 3 (dist)
--------------------------------------------------------------------------|
--------------------------------------------------------------------------|
--------------------------------------------------------------5-----------|
-------------------------6-6-6-------------------------6-6-6--5--6--(6)-3-|
-------------------------6-6-6-------------------------6-6-6--3--6--(6)-3-|
-0-0-0-3^p0-0-3^p0-0-0-0-6-6-6-0-0-0-3^p0-0-3^p0-0-0-0-6-6-6-----6--(6)-3-|

outro (dist)
-------------------------------------------------------------|
-------------------------------------------------------------|
-------------------------------------------------------------|
-------------------------6-6-6-------------------------------|
-------------------------6-6-6-------------------------------|
-0-0-0-3^p0-0-3^p0-0-0-0-6-6-6-0-0-0-3^p0-0-3^p0-0-0-0-1h3-1-|

outro cont (dist)
----------------------------------------------------------|
----------------------------------------------------------|
-----------------------------------8-----8-----8----------|
-------------------------6-6-6-----7-----7-----7----------|
-------------------------6-6-6-----6-----6-----6----------|
-0-0-0-3^p0-0-3^p0-0-0-0-6-6-6-0-0---0-0---0-0---0-0-/12\-|
                               * *   * *   * *   * *
outro cont (dist)
-------------------------------------------------------------|
-------------------------------------------------------------|
-------------------------------------------------------------|
-------------------------6-6-6-------------------------------|
-------------------------6-6-6-------------------------------|
-0-0-0-3^p0-0-3^p0-0-0-0-6-6-6-0-0-0-3^p0-0-3^p0-0-0-0-1h3-1-|

outro 2 (dist)
------------------------------------------------------------|
------------------------------------------------------------|
-----------------------------------8-----8-----8------------|
-------------------------6-6-6-----7-----7-----7----------0-|
-------------------------6-6-6-----6-----6-----6----------0-|
-0-0-0-3^p0-0-3^p0-0-0-0-6-6-6-0-0---0-0---0-0---0-0-/12\-0-|
                               * *   * *   * *   * *

##########################################################################################################
mama (low to high) DADGBE
                                ^=bend             /=slide up
                                h=hammer on        \=slide down
intro                           p=pull off       p.s=pick scrape
clean 2x                        *=palm mute        t=trem pick
-----------------------------------|
-----------------------------------|
---------------------------------0-|
---2---2---3---2---2-0---2---2-----|
-0---0---0---0---0---0-3---3---3---|
-----------------------------------|

intro solo

-----------------------------------------------------------------------------------3-5-|
------------------------------------8-(8)\-----8-10-8-10^(10)--8-10-8-(8)-\-3-3-/5-----|
-7^(7)-5-------5----5-5-7-5h7-7-/-9---(9)\-/-9-----------------------------------------|
---------7-5h7----7--------------------------------------------------------------------|
---------------------------------------------------------------------------------------|
---------------------------------------------------------------------------------------|


verse
clean
-----------------------------------|--------------------------------------------------|
-----------------------------------|--------------------------------------------------|
---------------------------------0-|--------------------------------------0---2p0-----|
---2---2---3---2---2-0---2---2-----|----2---2---3---2---2-0---2---2-----0---0-----0---|
-0---0---0---0---0---0-3---3---3---|--0---0---0---0---0---0-3---3---0---------------0-|
-----------------------------------|----------------------------------5---------------|

verse continue
clean
--------------------------------------------------------------------------|
--------------------------------------------------------------------------|
--------------------------------0---------------------------------------0-|
---2---2---3---2---2-0---2---2-----x-x----2---2---3---2---2-0---2---2-----|
-0---0---0---0---0---0-3---3---3---x-x--0---0---0---0---0---0-3---3---3---|
-----------------------------------x-x------------------------------------|


pre-chorus
dist
-----------------------------------------------------------|
-----------------------------------------------------------|
-----------------------------------------------------------|
------2--2-3-3-2--2-0-0-0-2-2h3-3--3-3-3-3-3-5-5-5-5-5-5-0-|
------2--2-3-3-2--2-0-0-0-2-2h3-3--3-3-3-3-3-5-5-5-5-5-5-0-|
-12-\-2--2-3-3-2--2-0-0-0-2-2h3-3--3-3-3-3-3-5-5-5-5-5-5-0-|
           * *
pre-chorus continue
-------------------------------------------------------|
-------------------------------------------------------|
-------------------------------------------------------|
--2--2-2-2-2--2-0-0-0-2-2h3-3--3-3-3-3-3-5-5-5-5-5-5-0-|
--2--2-2-2-2--2-0-0-0-2-2h3-3--3-3-3-3-3-5-5-5-5-5-5-0-|
--2--2-2-2-2--2-0-0-0-2-2h3-3--3-3-3-3-3-5-5-5-5-5-5-0-|
       * *

chorus
dist
-------------------------------------------------------|
-------------------------------------------------------|
-2-2-2-------2-2-2-----2-5-5-5-5-5-/-10-10-10-10\9-9-0-|
-2-2-2-------2-2-2-----2-5-5-5-5-5----x--x--x--x---x-0-|
-0-0-0--3p0--0-0-0-3p0-0-3-3-3-3-3-/--8--8--8--8\7-7-0-|
-------------------------------------------------------|

chorus continue
dist
------------------------------------------------------|
------------------------------------------------------|
--2-2------2-2-2------2-5-5-5-5-5-5-------------------|
--2-2------2-2-2------2-5-5-5-5-5-5-3-3-3-3\2-2p0-----|
--0-0--3p0-0-0-0--3-0-0-3-3-3-3-3-3-3-3-3-3\2-2p0-----|
------------------------------------3-3-3-3\2-2p0-----|


chorus continue
dist
----------------------------------------------------|
----------------------------------------------------|
--2-2-----2-2-2-----2-5-5-5-5-5-/-10-10-10-10\9-9-0-|
--2-2-----2-2-2-----2-5-5-5-5-5----x--x--x--x---x-0-|
--0-0-3p0-0-0-0-3-0-0-3-3-3-3-3-/--8--8--8--8\7-7-0-|
----------------------------------------------------|

chorus continue dist
------------------------|
------------------------|
--2-2-----2-2-2-----2---|
--2-2-----2-2-2-----2-0-|
--0-0-3p0-0-0-0-3p0-0-0-|
----------------------0-|

solo 2
------5----5-5--------------------------------------------------------|
-5-8-----------8--6-5--5-8--------------------------------------------|
---------------------------7-/-9-7-5----------------------------5-----|
-------------------------------------7-5---5h7-5-----5---7p5------7p5-|
-----------------------------------------7-------5h7---7-----7--------|
----------------------------------------------------------------------|

verse
clean
-----------------------------------|--------------------------------------------------|
-----------------------------------|--------------------------------------------------|
---------------------------------0-|--------------------------------------0---2p0-----|
---2---2---3---2---2-0---2---2-----|----2---2---3---2---2-0---2---2-----0---0-----0---|
-0---0---0---0---0---0-3---3---3---|--0---0---0---0---0---0-3---3---0---------------0-|
-----------------------------------|----------------------------------5---------------|

verse continue
clean
------------------------------------------------------------------------------|
------------------------------------------------------------------------------|
--------------------------------0-------------------------------------------0-|
---2---2---3---2---2-0---2---2----x-x--x-x----2---2---3---2---2-0---2---2-----|
-0---0---0---0---0---0-3---3---3--x-x--x-x--0---0---0---0---0---0-3---3---3---|
----------------------------------x-x--x-x------------------------------------|

pre-chorus
dist
----------------------------------------------------------------|
----------------------------------------------------------------|
----------------------------------------------------------------|
-----------2--2-3-3-2--2-0-0-0-2-2h3-3--3-3-3-3-3-5-5-5-5-5-5-0-|
-----------2--2-3-3-2--2-0-0-0-2-2h3-3--3-3-3-3-3-5-5-5-5-5-5-0-|
-0-0--12-\-2--2-3-3-2--2-0-0-0-2-2h3-3--3-3-3-3-3-5-5-5-5-5-5-0-|
 * *            * *
pre-chorus continue
-------------------------------------------------------|
-------------------------------------------------------|
-------------------------------------------------------|
--2--2-2-2-2--2-0-0-0-2-2h3-3--3-3-3-3-3-5-5-5-5-5-5-0-|
--2--2-2-2-2--2-0-0-0-2-2h3-3--3-3-3-3-3-5-5-5-5-5-5-0-|
--2--2-2-2-2--2-0-0-0-2-2h3-3--3-3-3-3-3-5-5-5-5-5-5-0-|
       * *

chorus
dist
-------------------------------------------------------|
-------------------------------------------------------|
-2-2-2-------2-2-2-----2-5-5-5-5-5-/-10-10-10-10\9-9-0-|
-2-2-2-------2-2-2-----2-5-5-5-5-5----x--x--x--x---x-0-|
-0-0-0--3p0--0-0-0-3p0-0-3-3-3-3-3-/--8--8--8--8\7-7-0-|
-------------------------------------------------------|

chorus continue
dist
------------------------------------------------------|
------------------------------------------------------|
--2-2------2-2-2------2-5-5-5-5-5-5-------------------|
--2-2------2-2-2------2-5-5-5-5-5-5-3-3-3-3\2-2p0-----|
--0-0--3p0-0-0-0--3-0-0-3-3-3-3-3-3-3-3-3-3\2-2p0-----|
------------------------------------3-3-3-3\2-2p0-----|


chorus continue
dist
----------------------------------------------------|
----------------------------------------------------|
--2-2-----2-2-2-----2-5-5-5-5-5-/-10-10-10-10\9-9-0-|
--2-2-----2-2-2-----2-5-5-5-5-5----x--x--x--x---x-0-|
--0-0-3p0-0-0-0-3-0-0-3-3-3-3-3-/--8--8--8--8\7-7-0-|
----------------------------------------------------|

chorus continue dist
------------------------|
------------------------|
--2-2-----2-2-2-----2---|
--2-2-----2-2-2-----2-0-|
--0-0-3p0-0-0-0-3p0-0-0-|
----------------------0-|

bridge
dist
----------------------------------------------------------|
----------------------------------------------------------|
--------------------------------------8---------8-8-8-----|
-0-0-0-0-0-0-0-0-0--0-0-0-0-0-0-0-0-0-7---7---7-7-7-7-----|
-0-0-0-0-0-0-0-0-0--0-0-0-0-0-0-0-0-0-6-6---6---6-6-6-----|
-0-0-0-0-0-0-0-0-0--0-0-0-0-0-0-0-0-0-----------------12\-|
   * * * * * * *      * * * * * *   *

bridge continue
----------------------------------------------------------------|
----------------------------------------------------------------|
--------------------------------------8-8-8-8-8-8-8-8-8---------|
-0-0-0-0-0-0-0-0-0--0-0-0-0-0-0-0-0-0-7-7-7-7-7-7-7-7-7---------|
-0-0-0-0-0-0-0-0-0--0-0-0-0-0-0-0-0-0-6-6-6-6-6-6-6-6-6---------|
-0-0-0-0-0-0-0-0-0--0-0-0-0-0-0-0-0-0-------------------0-12\-0-|
   * * * * * * *      * * * * * *   *

bridge continue
----------------------------------------------------------|
----------------------------------------------------------|
--------------------------------------8---------8-8-8-----|
-0-0-0-0-0-0-0-0-0--0-0-0-0-0-0-0-0-0-7---7---7-7-7=7-----|
-0-0-0-0-0-0-0-0-0--0-0-0-0-0-0-0-0-0-6-6---6---6-6-6-----|
-0-0-0-0-0-0-0-0-0--0-0-0-0-0-0-0-0-0-----------------12\-|
   * * * * * * *      * * * * * *   *

bridge continue
-----------------------------------------------|
-----------------------------------------------|
--------------------------------------8--(8)-\-|
-0-0-0-0-0-0-0-0-0--0-0-0-0-0-0-0-0---7--(7)-\-|
-0-0-0-0-0-0-0-0-0--0-0-0-0-0-0-0-0---6--(6)-\-|
-0-0-0-0-0-0-0-0-0--0-0-0-0-0-0-0-0-0----------|
   * * * * * * *      * * * * * *   *

solo
dist
------------------------------------------------------------|
-------------8----------------------------------------------|
-7^-(7)p5-7^---7^-(7)p5-7p5-------5-------------------------|
----------------------------7-5h7---7p5---5---5-5-5h7-(7)-\-|
----------------------------------------7---7---------------|
------------------------------------------------------------|

solo continue
--------------------------------------------------|
--------------------------------------------------|
-0-4---4---4-5p4---4---4-5p4----------5-5---------|
-----7---7-------7---7-------5-----5------7-(7)-\-|
-------------------------------5h7---7------------|
--------------------------------------------------|


solo continue
-0---0---0---0---0---0---0---0---0---0---0--0---0-------0---0---0---0---0---|
----------------------------------------------------------------------------|
---2---4---5---4---2---2---4---5---4---2---2--4--(4)/-9---7---5---4---5---7-|
----------------------------------------------------------------------------|
----------------------------------------------------------------------------|
----------------------------------------------------------------------------|

solo continue
----------------|
----------------|
-(7)p5--------x-|
-------7p5-7\-x-|
--------------x-|
----------------|
             p.s

solo 2
w/wah-wah
-------------------------|-------------------------------------------------|
-x-0-15^--15-15-15-15-15-|-15^-15^-(15)p13-15-15-15-13-15^-15^-------------|
-x-0---------------------|-------------------------------------14-14p12----|
-x-----------------------|----------------------------------------------15-|
-------------------------|-------------------------------------------------|
-------------------------|-------------------------------------------------|
     hold bend

solo 2 continue
w/wah-wah
----------------13^-------------------------------------------------------|
--------------0----15^-(15)-13----13-15^--13-13---------------------------|
-14-13-(13)-\-0----------------14----------------14-14-12----12----12h14--|
----------------------------------------------------------14----14--------|
--------------------------------------------------------------------------|
--------------------------------------------------------------------------|

chorus
dist
-------------------------------------------------------|
-------------------------------------------------------|
-2-2-2-------2-2-2-----2-5-5-5-5-5-/-10-10-10-10\9-9-0-|
-2-2-2-------2-2-2-----2-5-5-5-5-5----x--x--x--x---x-0-|
-0-0-0--3p0--0-0-0-3p0-0-3-3-3-3-3-/--8--8--8--8\7-7-0-|
-------------------------------------------------------|

chorus continue
dist
------------------------------------------------------|
------------------------------------------------------|
--2-2------2-2-2------2-5-5-5-5-5-5-------------------|
--2-2------2-2-2------2-5-5-5-5-5-5-3-3-3-3\2-2p0-----|
--0-0--3p0-0-0-0--3-0-0-3-3-3-3-3-3-3-3-3-3\2-2p0-----|
------------------------------------3-3-3-3\2-2p0-----|


chorus continue
dist
----------------------------------------------------|
----------------------------------------------------|
--2-2-----2-2-2-----2-5-5-5-5-5-/-10-10-10-10\9-9-0-|
--2-2-----2-2-2-----2-5-5-5-5-5----x--x--x--x---x-0-|
--0-0-3p0-0-0-0-3-0-0-3-3-3-3-3-/--8--8--8--8\7-7-0-|
----------------------------------------------------|

chorus continue dist
------------------------|
------------------------|
--2-2-----2-2-2-----2---|
--2-2-----2-2-2-----2-0-|
--0-0-3p0-0-0-0-3p0-0-0-|
----------------------0-|

chorus
dist
-------------------------------------------------------|
-------------------------------------------------------|
-2-2-2-------2-2-2-----2-5-5-5-5-5-/-10-10-10-10\9-9-0-|
-2-2-2-------2-2-2-----2-5-5-5-5-5----x--x--x--x---x-0-|
-0-0-0--3p0--0-0-0-3p0-0-3-3-3-3-3-/--8--8--8--8\7-7-0-|
-------------------------------------------------------|

chorus continue
dist
------------------------------------------------------|
------------------------------------------------------|
--2-2------2-2-2------2-5-5-5-5-5-5-------------------|
--2-2------2-2-2------2-5-5-5-5-5-5-3-3-3-3\2-2p0-----|
--0-0--3p0-0-0-0--3-0-0-3-3-3-3-3-3-3-3-3-3\2-2p0-----|
------------------------------------3-3-3-3\2-2p0-----|


chorus continue
dist
----------------------------------------------------|
----------------------------------------------------|
--2-2-----2-2-2-----2-5-5-5-5-5-/-10-10-10-10\9-9-0-|
--2-2-----2-2-2-----2-5-5-5-5-5----x--x--x--x---x-0-|
--0-0-3p0-0-0-0-3-0-0-3-3-3-3-3-/--8--8--8--8\7-7-0-|
----------------------------------------------------|

chorus continue dist
------------------------|
------------------------|
--2-2-----2-2-2-----2---|
--2-2-----2-2-2-----2-0-|
--0-0-3p0-0-0-0-3p0-0-0-|
----------------------0-|

bridge
dist
----------------------------------------------------------|
----------------------------------------------------------|
--------------------------------------8---------8-8-8-----|
-0-0-0-0-0-0-0-0-0--0-0-0-0-0-0-0-0-0-7---7---7-7-7-7-----|
-0-0-0-0-0-0-0-0-0--0-0-0-0-0-0-0-0-0-6-6---6---6-6-6-----|
-0-0-0-0-0-0-0-0-0--0-0-0-0-0-0-0-0-0-----------------12\-|
   * * * * * * *      * * * * * *   *

bridge continue
----------------------------------------------------------------|
----------------------------------------------------------------|
--------------------------------------8-8-8-8-8-8-8-8-8---------|
-0-0-0-0-0-0-0-0-0--0-0-0-0-0-0-0-0-0-7-7-7-7-7-7-7-7-7---------|
-0-0-0-0-0-0-0-0-0--0-0-0-0-0-0-0-0-0-6-6-6-6-6-6-6-6-6---------|
-0-0-0-0-0-0-0-0-0--0-0-0-0-0-0-0-0-0-------------------0-12\-0-|
   * * * * * * *      * * * * * *   *

bridge continue
----------------------------------------------------------|
----------------------------------------------------------|
--------------------------------------8---------8-8-8-----|
-0-0-0-0-0-0-0-0-0--0-0-0-0-0-0-0-0-0-7---7---7-7-7=7-----|
-0-0-0-0-0-0-0-0-0--0-0-0-0-0-0-0-0-0-6-6---6---6-6-6-----|
-0-0-0-0-0-0-0-0-0--0-0-0-0-0-0-0-0-0-----------------12\-|
   * * * * * * *      * * * * * *   *

bridge continue
-----------------------------------------------|
-----------------------------------------------|
--------------------------------------8--(8)-\-|
-0-0-0-0-0-0-0-0-0--0-0-0-0-0-0-0-0---7--(7)-\-|
-0-0-0-0-0-0-0-0-0--0-0-0-0-0-0-0-0---6--(6)-\-|
-0-0-0-0-0-0-0-0-0--0-0-0-0-0-0-0-0-0----------|
   * * * * * * *      * * * * * *   *

outro solo
w/wah-wah
----------------------------------------------------------------------------------|
--------------------10------------------------10----------------10----------------|
-12^(12)p10----12^-----13-13-12-12-12h13p12------13p12h13p12h13----13p12h13p12p10-|
------------12------------------------------13------------------------------------|
----------------------------------------------------------------------------------|
----------------------------------------------------------------------------------|

outro solo continue
w/wah-wah
--------------------------------------10-------------10----10-----10-10-------|
---10-----10h13p10-----10h13p10----10----13p10----------13----13^-------13p10-|
------12^----------12^----------12-------------13-12--------------------------|
-12---------------------------------------------------------------------------|
------------------------------------------------------------------------------|
------------------------------------------------------------------------------|

outro solo continue
w/wah-wah
-----------------------------------------------------------------------------------|
-13^-10-13^-(13)-10-----10h13-10---------------------------------------------------|
--------------------12^----------13-13p12h13p12p10----12^-12-12-12-12-12--(12)p10--|
---------------------------------------------------12------------------------------|
-----------------------------------------------------------------------------------|
-----------------------------------------------------------------------------------|
                                                    hold bend----------------------|


outro solo continue
w/wah-wah
--------------------------------------10-------------------------------------------|
-----------------------------10h13p10----15p10----15p10------------13----13-/-(17)-|
-12p10h12-12p10h12-12p10h12^-------------------12-------12--7-/-14----14-----------|
-----------------------------------------------------------------------------------|
-----------------------------------------------------------------------------------|
-----------------------------------------------------------------------------------|


outro solo continue
w/wah-wah
----13----13----13----13----13----13----13----13----13-----13-|
-17----17----17----17----17----17----17----17----17----17-----|
--------------------------------------------------------------|
--------------------------------------------------------------|
--------------------------------------------------------------|
--------------------------------------------------------------|
                                                            t


outro solo continue
w/wah-wah
-15^-(15)-13----13-15^-(15)-13----13-15^-(15)-13----13-15^-(15)-13----13-15^-(15)-13-|
-------------15----------------15----------------15----------------15----------------|
-------------------------------------------------------------------------------------|
-------------------------------------------------------------------------------------|
-------------------------------------------------------------------------------------|
-------------------------------------------------------------------------------------|


outro solo continue
----15^-(15)-15^-15^-15^-15^-15^-15^-15^-(15)-(15)p13----------------------------|
-15---------------------------------------------------13h15p13----13h15p13----13-|
---------------------------------------------------------------14----------14----|
---------------------------------------------------------------------------------|
---------------------------------------------------------------------------------|
---------------------------------------------------------------------------------|

outro solo continue
w/wah-wah
-----------------------------------------|
----------13-----------------------------|
-14-12h14----14-12h14--13p12-10-13p12p10-|
-----------------------------------------|
-----------------------------------------|
-----------------------------------------|
                                       fade out

############################################################################################################################
one rainy day (low to high) DADGBE
                                   ^=bend             /=slide up     R=rake
                                   h=hammer on        \=slide down
                                   p=pull off       p.s=pick scrape
                                   *=palm mute        t=trem pick

intro (slight dist)
-----0----------------------0-------------|
-------3----------------------3-----------|
---------0--------------------------------|
-2-2--------------------2-2-----2-2-0-3-3-|
-2-2-------2-3-5-5^-(5)-2-2-----2-2-0-3-3-|
-2-2-------2-3-5-5^-(5)-2-2-----2-2-0-3-3-|

intro cont (slight dist)
-----0----------------------0-------------|
-------3----------------------3-----------|
---------0--------------------------------|
-2-2--------------------2-2-----2-2-0-3-0-|
-2-2-------2-3-5-5^-(5)-2-2-----2-2-0-3-0-|
-2-2-------2-3-5-5^-(5)-2-2-----2-2-0-3-0-|

intro cont (slight dist)
-----0----------------------0-------------|
-------3----------------------3-----------|
---------0--------------------------------|
-2-2--------------------2-2-----2-2-0-3-0-|
-2-2-------2-3-5-5^-(5)-2-2-----2-2-0-3-0-|
-2-2-------2-3-5-5^-(5)-2-2-----2-2-0-3-0-|

intro cont (slight dist)
-----0----------------------0-------------|
-------3----------------------3-----------|
---------0--------------------------------|
-2-2--------------------2-2-----2-2-0-3-0-|
-2-2-------2-3-5-5^-(5)-2-2-----2-2-0-3-0-|
-2-2-------2-3-5-5^-(5)-2-2-----2-2-0-3-0-|


verse (slight dist)
-----0----------------------0-------------|
-------3----------------------3-----------|
---------0--------------------------------|
-2-2--------------------2-2-----2-2-0-3-0-|
-2-2-------2-3-5-5^-(5)-2-2-----2-2-0-3-0-|
-2-2-------2-3-5-5^-(5)-2-2-----2-2-0-3-0-|

verse cont (slight dist)
-----0----------------------0-------------|
-------3----------------------3-----------|
---------0--------------------------------|
-2-2--------------------2-2-----2-2-0-3-0-|
-2-2-------2-3-5-5^-(5)-2-2-----2-2-0-3-0-|
-2-2-------2-3-5-5^-(5)-2-2-----2-2-0-3-0-|

verse cont (slight dist)
-----0----------------------0-------------|
-------3----------------------3-----------|
---------0--------------------------------|
-2-2--------------------2-2-----2-2-0-3-0-|
-2-2-------2-3-5-5^-(5)-2-2-----2-2-0-3-0-|
-2-2-------2-3-5-5^-(5)-2-2-----2-2-0-3-0-|

verse cont (slight dist)
-----0----------------------0-------------|
-------3----------------------3-----------|
---------0--------------------------------|
-2-2--------------------2-2-----2-2-0-3-0-|
-2-2-------2-3-5-5^-(5)-2-2-----2-2-0-3-0-|
-2-2-------2-3-5-5^-(5)-2-2-----2-2-0-3-0-|

verse 2 (slight dist)
-----0----------------------0-------------|
-------3----------------------3-----------|
---------0--------------------------------|
-2-2--------------------2-2-----2-2-0-3-0-|
-2-2-------2-3-5-5^-(5)-2-2-----2-2-0-3-0-|
-2-2-------2-3-5-5^-(5)-2-2-----2-2-0-3-0-|

chorus (slight dist)
------------------------------------------|
-----1---3---1----------------------0-----|
-0---------------0----2-------2-------2---|
-2-----------------2--1---1-----1-------1-|
-3-3---3---3---3------2-2---2-----2-------|
------------------------------------------|

chorus cont (slight dist)
---------------------------------------|
-----1---3---1-----------------------0-|
-0---------------0----2---2------------|
-2-----------------2--1-1-----1---1----|
-3-3---3---3---3------2-----2---2------|
---------------------------------------|

solo (dist) w/wah-wah
-0---0-0-0-0-0-------0----|
-3/5-5-5-5-5-5-\-3-3---3\-|
--------------------------|
--------------------------|
--------------------------|
--------------------------|

solo (dist)
-------------------------------------------------------------------------------------------------|
-\0----------------------------------------------------------------------------------------------|
----2p0---0-2-2^-(2)p0---------------------------------------------12^-(12)-(12)^----------------|
--------2--------------2p0h2p0-(2)-(0)h2p0-------12----12-14-14-14----------------14p12----12-14-|
-------------------------------------------12/14----14----------------------------------14-------|
-------------------------------------------------------------------------------------------------|

solo cont (dist)
---------------------------------------------------------|
----------------------------------------0-0--------------|
-14-12^-12------------------------------0-2-2^-(2)p0-----|
-----------14-12----12-14-14-14-(14)\-2--------------2-0-|
-----------------14--------------------------------------|
---------------------------------------------------------|

verse (slight dist)
-----0----------------------0-------------|
-------3----------------------3-----------|
---------0--------------------------------|
-2-2--------------------2-2-----2-2-0-3-0-|
-2-2-------2-3-5-5^-(5)-2-2-----2-2-0-3-0-|
-2-2-------2-3-5-5^-(5)-2-2-----2-2-0-3-0-|

verse cont (slight dist)
-----0----------------------0-------------|
-------3----------------------3-----------|
---------0--------------------------------|
-2-2--------------------2-2-----2-2-0-3-0-|
-2-2-------2-3-5-5^-(5)-2-2-----2-2-0-3-0-|
-2-2-------2-3-5-5^-(5)-2-2-----2-2-0-3-0-|

verse cont (slight dist)
-----0----------------------0-------------|
-------3----------------------3-----------|
---------0--------------------------------|
-2-2--------------------2-2-----2-2-0-3-0-|
-2-2-------2-3-5-5^-(5)-2-2-----2-2-0-3-0-|
-2-2-------2-3-5-5^-(5)-2-2-----2-2-0-3-0-|

verse cont (slight dist)
-----0----------------------0-------------|
-------3----------------------3-----------|
---------0--------------------------------|
-2-2--------------------2-2-----2-2-0-3-0-|
-2-2-------2-3-5-5^-(5)-2-2-----2-2-0-3-0-|
-2-2-------2-3-5-5^-(5)-2-2-----2-2-0-3-0-|

verse 2 (slight dist)
-----0----------------------0-------------|
-------3----------------------3-----------|
---------0--------------------------------|
-2-2--------------------2-2-----2-2-0-3-0-|
-2-2-------2-3-5-5^-(5)-2-2-----2-2-0-3-0-|
-2-2-------2-3-5-5^-(5)-2-2-----2-2-0-3-0-|

chorus (slight dist)
------------------------------------------|
-----1---3---1----------------------0-----|
-0---------------0----2-------2-------2---|
-2-----------------2--1---1-----1-------1-|
-3-3---3---3---3------2-2---2-----2-------|
------------------------------------------|

chorus cont (slight dist)
---------------------------------------|
-----1---3---1-----------------------0-|
-0---------------0----2---2------------|
-2-----------------2--1-1-----1---1----|
-3-3---3---3---3------2-----2---2------|
---------------------------------------|

chorus cont (slight dist)
------------------------------------------|
-----1---3---1----------------------0-----|
-0---------------0----2-------2-------2---|
-2-----------------2--1---1-----1-------1-|
-3-3---3---3---3------2-2---2-----2-------|
------------------------------------------|


chorus 2 (slight dist)
-------------------------------------------------|
---------0---------1---3---1-------------------0-|
-(2)-------2---0---------------0---2-2-------2---|
-----1-------1-2-----------------2-1-----1-------|
-------2-------3-3---3---3---3-----2---2---2-----|
-------------------------------------------------|

solo (dist)
------------------------------------------------------------------------------------------------|
-15--15-------15-15-15-15-15-15-15--15--15-15-15----15------------------------------------------|
-14^-14^-(14)-12-14-12-14-12-14-14^-14^-12-14-12h14-12-------------------------------------12---|
-------------------------------------------------------/14-12-(14)-12h14-12-(12)\-14-12-14---14-|
------------------------------------------------------------------------------------------------|
------------------------------------------------------------------------------------------------|

solo cont (dist)
----------------------------------------------------------------------------------------------|
----------------12----------------------14^-12-(12)^----------------------12-15-12-15-12-(15)-|
-------12-14h15----15-14p12----14p12----------------------14-12^----12-14---------------------|
-12-14----------------------14-------14-----------------14-------14---------------------------|
------------------------------------------------------x---------------------------------------|
----------------------------------------------------------------------------------------------|
                                                      R

solo cont (dist)
------------------------12--------------------------------12-----------------------------------|
-15^-15-(15)\-15^-(15)^----15-12h15p12-----12-12h15p12-----------------------------------------|
---------------------------------------14^-------------15----15-14h15p14p12----12-14^-12-(12)\-|
----------------------------------------------------------------------------14-----------------|
-----------------------------------------------------------------------------------------------|
-----------------------------------------------------------------------------------------------|

solo cont w/wah-wah
-------------------------------------------------------------------------------------------|
-------------------------------------------------------------------------------------------|
-2^-(2)-2^-(2)-2-2^-2^-2^-2^-2^-2^-2^-2^-2^-(2)p0-2-2^-2-2p0-2-2p0-2-2p0-2-2p0-2^-(2)-(2)^-|
-------------------------------------------------------------------------------------------|
-------------------------------------------------------------------------------------------|
-------------------------------------------------------------------------------------------|

solo cont w/wah-wah
----------------------------------------------12-----------------------------12-------------|
-------------------------------------------------15p12----12-15^-12-12----15----15-12-15p12-|
-------12----14p12----12^-(12)-12^-(12)\-/14^----------15--------------12-------------------|
-0-/14----14-------14-----------------------------------------------------------------------|
--------------------------------------------------------------------------------------------|
--------------------------------------------------------------------------------------------|

solo cont w/wah-wah
-----------------------------------------------------12------------------------------------|
----12--------------------------------------------13----13p12------------------------------|
-15----14p12-14p12\11-12-11-12/14-12-14^-12-(12)\-------------14-12p11-12p11-9-8^-(8)-(8)\-|
-------------------------------------------------------------------------------------------|
-------------------------------------------------------------------------------------------|
-------------------------------------------------------------------------------------------|

outro (slight dist)
-----0----------------------0-------------|
-------3----------------------3-----------|
---------0--------------------------------|
-2-2--------------------2-2-----2-2-0-3-3-|
-2-2-------2-3-5-5^-(5)-2-2-----2-2-0-3-3-|
-2-2-------2-3-5-5^-(5)-2-2-----2-2-0-3-3-|

fade out

######################################################################################################################

if there any problems please send me an email to suicidalassn@yahoo.com
please rate and leave comments and tell me what you think thank you guys alot
ive been trying to figure this out since it came out and i hope you all like it
cause when i play it it sounds perfect so thank you guys again for the rates and comments

godsmack rocks!!!!

########################################################################################################################
comments
print report bad tab
6 comments total. Showing first comments.
0 reply
badhabit000 wrote on December 12 2006, 05:38 pm

WOW good job on tabbing these!! there like 99.9 percent corect. good work :)

0 reply
sonyashadron wrote on December 30 2006, 11:50 pm

i dont no who would give this a bad grade this is amazing i agree with you badhabit000

0 reply
Spyder Recluse wrote on February 4 2007, 11:43 am

These Tabs are KICK ASS!! Keep Tabbing dude!!!!
PEACE OUT YO!! :P

I want to post or [tab]
guest
You may want to rate the tab now too:
select rating
Please do not post tabs as comments. Select "correction" instead!