Oops, an error
Loading. Please wait.

Shine Down Tab

ver2
ver2

Whole song

Interactive

More versions @911Tabs.com
12,937 views 6 this week
no commentswrite comment
1 2 3 4 5
excellent!
x 9
Autoscroll
+/-
esc
set tempo
stop
Contributor
Difficulty
intermediate
WARNING: You are trying to view
                                    content from Ultimate-Guitar.com
                                    in an unauthorized application,
                                    which is prohibited.

                                    Please use an official Ultimate
                                    Guitar Tabs application for iPhone,
                                    iPad or Android to access legitimate
                                    chords, guitar, bass, and drum tabs
                                    from Ultimate-Guitar.com database.

                                    Type "ultimate guitar tabs" in Apple
                                    App Store's or Android Market's
                                    search to find the application.
shine down (low to high) DADGBE
                            *=palm mute    \=slide down    ^=bend
                            T=trem pick    p=pull off
                            /=slide up     h=hammer on
intro (dist)
---------------------------------------------------------|
---------------------------------------------------------|
-5p0-----------2-2-2-2---2-2-5p0-----------2-2-2-2---0-0-|
-----5/7-------3-3-3-3---2-2-----5/7-------3-3-3-3---0-0-|
---------0-0-0---------0-------------0-0-0---------0-----|
---------------------------------------------------------|
                       *                           *

intro cont (dist)
------------------------------------------------------------------|
------------------------------------------------------------------|
-5p0-----------2-2-2-2---2-2-5p0------------------------0-5p0-----|
-----5/7-------3-3-3-3---2-2-----5/7--5-5-5-5-/-7-7-7-7-------5/7-|
---------0-0-0---------0--------------3-3-3-3-/-5-5-5-5-----------|
------------------------------------------------------------------|
                       *

intro 2 (dist)
-------------------------------------------------|
-------------------------------------------------|
-------2-2-2-2---2-2-5p0-----------2-2-2-2---0-0-|
-------3-3-3-3---2-2-----5/7-------3-3-3-3---0-0-|
-0-0-0---------0-------------0-0-0---------0-----|
-------------------------------------------------|
               *                           *

intro 2 cont (dist)
----------------------------------------------------|
----------------------------------------------------|
-2-2-2-2---2-2-5p0--------------------------------0-|
-3-3-3-3---2-2-----5/7--5-5-5-/-7-7-7-7-----------0-|
---------0--------------3-3-3-/-5-5-5-5-0-5-/-7-8---|
------------------------------------------5-/-7-8---|
         *

verse (dist)
---------------------------------------------------------|
---------------------------------------------------------|
-2-2-2-2---2-2-2-2---2-2---2-2-2-2---2-2-2-3-3-3-3-3-3-3-|
-2-2-2-2---2-2-2-2---2-2---2-2-2-2---2-2-2-3-3-3-3-3-3-3-|
---------0---------0-----0---------0---------------------|
---------------------------------------------------------|
         *         *     *         *

verse cont (dist)
---------------------------------------------------------|
---------------------------------------------------------|
-2-2-2-2---2-2-2-2---2-2---2-2-2-2---2-2-2-0-0-0-0-0-0-0-|
-2-2-2-2---2-2-2-2---2-2---2-2-2-2---2-2-2-0-0-0-0-0-0-0-|
---------0---------0-----0---------0---------------------|
---------------------------------------------------------|
         *         *     *         *

verse cont (dist)
---------------------------------------------------------|
---------------------------------------------------------|
-2-2-2-2---2-2-2-2---2-2---2-2-2-2---2-2-2-3-3-3-3-3-3-3-|
-2-2-2-2---2-2-2-2---2-2---2-2-2-2---2-2-2-3-3-3-3-3-3-3-|
---------0---------0-----0---------0---------------------|
---------------------------------------------------------|
         *         *     *         *

verse cont (dist)
---------------------------------------------------------|
---------------------------------------------------------|
-2-2-2-2---2-2-2-2---2-2---2-2-2-2---2-2-2-0-0-0-0-0-0-0-|
-2-2-2-2---2-2-2-2---2-2---2-2-2-2---2-2-2-0-0-0-0-0-0-0-|
---------0---------0-----0---------0---------------------|
---------------------------------------------------------|
         *         *     *         *


pre-chorus (dist)
---------------------------------------------------------------------|
---------------------------------------------------------------------|
---5-5-5-5-5-5-5-5-----7-7---7-7-7-7-7---5-5-5-5-5-5-5-5-------------|
-3-3-3-3-3-3-3-3-3-5-5-5-5-5-5-5-5-5-5-3-3-3-3-3-3-3-3-3-2-2-(2)/5-5-|
-3-3-3-3-3-3-3-3-3-5-5-5-5-5-5-5-5-5-5-3-3-3-3-3-3-3-3-3-2-2-(2)/5-5-|
-3-3-3-3-3-3-3-3-3-5-5-5-5-5-5-5-5-5-5-3-3-3-3-3-3-3-3-3-2-2-(2)/5-5-|

chorus (dist)
---------------------------------------------------------|
---------------------------------------------------------|
-5p0-----------2-2-2-2---2-2-5p0-----------2-2-2-2---0-0-|
-----5/7-------3-3-3-3---2-2-----5/7-------3-3-3-3---0-0-|
---------0-0-0---------0-------------0-0-0---------0-----|
---------------------------------------------------------|
                       *                           *

chorus cont (dist)
-----------------------------------------------------------------|
-----------------------------------------------------------------|
-5p0-----------2-2-2-2---2-2-5p0-----------------------0-5p0-----|
-----5/7-------3-3-3-3---2-2-----5/7-5-5-5-5-/-7-7-7-7-------5/7-|
---------0-0-0---------0-------------3-3-3-3-/-5-5-5-5-----------|
-----------------------------------------------------------------|
                       *

chorus cont (dist)
---------------------------------------------------------|
---------------------------------------------------------|
-5p0-----------2-2-2-2---2-2-5p0-----------2-2-2-2---0-0-|
-----5/7-------3-3-3-3---2-2-----5/7-------3-3-3-3---0-0-|
---------0-0-0---------0-------------0-0-0---------0-----|
---------------------------------------------------------|
                       *                           *

chorus cont (dist)
-----------------------------------------------------------------|
-----------------------------------------------------------------|
-5p0-----------2-2-2-2---2-2-5p0-----------------------0-5p0-----|
-----5/7-------3-3-3-3---2-2-----5/7-5-5-5-5-/-7-7-7-7-------5/7-|
---------0-0-0---------0-------------3-3-3-3-/-5-5-5-5-----------|
-----------------------------------------------------------------|
                       *

verse (dist)
---------------------------------------------------------|
---------------------------------------------------------|
-2-2-2-2---2-2-2-2---2-2---2-2-2-2---2-2-2-3-3-3-3-3-3-3-|
-2-2-2-2---2-2-2-2---2-2---2-2-2-2---2-2-2-3-3-3-3-3-3-3-|
---------0---------0-----0---------0---------------------|
---------------------------------------------------------|
         *         *     *         *

verse cont (dist)
---------------------------------------------------------|
---------------------------------------------------------|
-2-2-2-2---2-2-2-2---2-2---2-2-2-2---2-2-2-0-0-0-0-0-0-0-|
-2-2-2-2---2-2-2-2---2-2---2-2-2-2---2-2-2-0-0-0-0-0-0-0-|
---------0---------0-----0---------0---------------------|
---------------------------------------------------------|
         *         *     *         *

verse cont (dist)
---------------------------------------------------------|
---------------------------------------------------------|
-2-2-2-2---2-2-2-2---2-2---2-2-2-2---2-2-2-3-3-3-3-3-3-3-|
-2-2-2-2---2-2-2-2---2-2---2-2-2-2---2-2-2-3-3-3-3-3-3-3-|
---------0---------0-----0---------0---------------------|
---------------------------------------------------------|
         *         *     *         *

verse cont (dist)
---------------------------------------------------------|
---------------------------------------------------------|
-2-2-2-2---2-2-2-2---2-2---2-2-2-2---2-2-2-0-0-0-0-0-0-0-|
-2-2-2-2---2-2-2-2---2-2---2-2-2-2---2-2-2-0-0-0-0-0-0-0-|
---------0---------0-----0---------0---------------------|
---------------------------------------------------------|
         *         *     *         *


pre-chorus 2  (dist)
---------------------------------------------------------|
---------------------------------------------------------|
---5-5-5-5-5-5-5-5-----7-7---7-7-7-7-7---5-5-5-5-5-5-5-5-|
-3-3-3-3-3-3-3-3-3-5-5-5-5-5-5-5-5-5-5-3-3-3-3-3-3-3-3-3-|
-3-3-3-3-3-3-3-3-3-5-5-5-5-5-5-5-5-5-5-3-3-3-3-3-3-3-3-3-|
-3-3-3-3-3-3-3-3-3-5-5-5-5-5-5-5-5-5-5-3-3-3-3-3-3-3-3-3-|

pre-chorus 2 cont (dist)
------------------------------------------------------------------------------------------|
------------------------------------------------------------------------------------------|
-----7-7---7-7-7-7-7---5-5-5-5-5-5-5-5------7-7---7-7-7-7-7---5-5-5-5-5-5-5-5-------------|
-5-5-5-5-5-5-5-5-5-5-3-3-3-3-3-3-3-3-3--5-5-5-5-5-5-5-5-5-5-3-3-3-3-3-3-3-3-3-2-2-(2)/5-5-|
-5-5-5-5-5-5-5-5-5-5-3-3-3-3-3-3-3-3-3--5-5-5-5-5-5-5-5-5-5-3-3-3-3-3-3-3-3-3-2-2-(2)/5-5-|
-5-5-5-5-5-5-5-5-5-5-3-3-3-3-3-3-3-3-3--5-5-5-5-5-5-5-5-5-5-3-3-3-3-3-3-3-3-3-2-2-(2)/5-5-|

chorus (dist)
---------------------------------------------------------|
---------------------------------------------------------|
-5p0-----------2-2-2-2---2-2-5p0-----------2-2-2-2---0-0-|
-----5/7-------3-3-3-3---2-2-----5/7-------3-3-3-3---0-0-|
---------0-0-0---------0-------------0-0-0---------0-----|
---------------------------------------------------------|
                       *                           *

chorus cont (dist)
-----------------------------------------------------------------|
-----------------------------------------------------------------|
-5p0-----------2-2-2-2---2-2-5p0-----------------------0-5p0-----|
-----5/7-------3-3-3-3---2-2-----5/7-5-5-5-5-/-7-7-7-7-------5/7-|
---------0-0-0---------0-------------3-3-3-3-/-5-5-5-5-----------|
-----------------------------------------------------------------|
                       *

chorus cont (dist)
----------------------------------------------------------|
----------------------------------------------------------|
-5p0-----------2-2-2-2---2-2-5p0------------2-2-2-2---0-0-|
-----5/7-------3-3-3-3---2-2-----5/7--------3-3-3-3---0-0-|
---------0-0-0---------0--------------0-0-0---------0-----|
----------------------------------------------------------|
                       *                            *

chorus cont (dist)
-----------------------------------------------------------------|
-----------------------------------------------------------------|
-5p0-----------2-2-2-2---2-2-5p0-----------------------0-5p0-----|
-----5/7-------3-3-3-3---2-2-----5/7-5-5-5-5-/-7-7-7-7-------5/7-|
---------0-0-0---------0-------------3-3-3-3-/-5-5-5-5-----------|
-----------------------------------------------------------------|
                       *

solo w/wah-wah (he uses a harmonica for this)
-----------15-(15)-----------------------------------------------------------|
-15^-(15)^---------15^-(15)^-15^-(15)^-15------------------------------------|
------------------------------------------14---14---14-14-14----14-14-14-16^-|
---------------------------------------------16---16---------16--------------|
-----------------------------------------------------------------------------|
-----------------------------------------------------------------------------|

solo cont w/wah-wah (he uses a harmonica for this)
----------------15--------------------17^-17^-17-17^-(17)p15------------------|
-14-14----14------17-15-17-15-----------------15-------------17\15-15^-15-15^-|
-------14----14---------------16^-14------------------------------------------|
------------------------------------------------------------------------------|
------------------------------------------------------------------------------|
------------------------------------------------------------------------------|

solo cont w/wah-wah (he uses a harmonica for this)
-12-12--------12-12-----15-----15--15--15--|
-------15-15^-------15^----15^-15^-15^-15^-|
-------------------------------------------|
-------------------------------------------|
-------------------------------------------|
-------------------------------------------|
                               T    T   T

outro (dist)
-----------|
-----------|
-0-5p0-----|
-------5/7-|
-----------|
-----------|

outro 2 (dist)
--------------------------------------------------|
--------------------------------------------------|
-------2-2-2-2---2-2--5p0-----------2-2-2-2---0-0-|
-------3-3-3-3---2-2------5/7-------3-3-3-3---0-0-|
-0-0-0---------0--------------0-0-0---------0-----|
--------------------------------------------------|
               *                            *

outro 2 cont (dist)
-----------------------------------------------------------------|
-----------------------------------------------------------------|
-5p0-----------2-2-2-2---2-2-5p0-----------------------0-5p0-----|
-----5/7-------3-3-3-3---2-2-----5/7-5-5-5-5-/-7-7-7-7-------5/7-|
---------0-0-0---------0-------------3-3-3-3-/-5-5-5-5-----------|
-----------------------------------------------------------------|
                       *

outro 2 cont (dist)
--------------------------------------------------|
--------------------------------------------------|
-------2-2-2-2---2-2-5p0------------2-2-2-2---0-0-|
-------3-3-3-3---2-2------5/7-------3-3-3-3---0-0-|
-0-0-0---------0--------------0-0-0---------0-----|
--------------------------------------------------|
               *                            *

outro 2 cont (dist)
-----------------------------------------------------------------|
-----------------------------------------------------------------|
-5p0-----------2-2-2-2---2-2-5p0-----------------------0-5p0-----|
-----5/7-------3-3-3-3---2-2-----5/7-5-5-5-5-/-7-7-7-7-------5/7-|
---------0-0-0---------0-------------3-3-3-3-/-5-5-5-5-----------|
-----------------------------------------------------------------|
                       *
outro 2 cont (dist)
---------------------------------------------------------|
---------------------------------------------------------|
-5p0-----------2-2-2-2---2-2-5p0-----------2-2-2-2---0-0-|
-----5/7-------3-3-3-3---2-2-----5/7-------3-3-3-3---0-0-|
---------0-0-0---------0-------------0-0-0---------0-----|
---------------------------------------------------------|
                       *                           *

outro 2 cont (dist)
------------------------------------------------------------------|
------------------------------------------------------------------|
-5p0-----------2-2-2-2---2-2-5p0------------------------0-5p0-----|
-----5/7-------3-3-3-3---2-2-----5/7--5-5-5-5-/-7-7-7-7-------5/7-|
---------0-0-0---------0--------------3-3-3-3-/-5-5-5-5-----------|
------------------------------------------------------------------|
                       *

outro 2 cont (dist)
---------------------------------------------------------|
---------------------------------------------------------|
-5p0-----------2-2-2-2---2-2-5p0-----------2-2-2-2---0-0-|
-----5/7-------3-3-3-3---2-2-----5/7-------3-3-3-3---0-0-|
---------0-0-0---------0-------------0-0-0---------0-----|
---------------------------------------------------------|
                       *                           *

outro 2 cont (dist)
------------------------------------------------------------------|
------------------------------------------------------------------|
-5p0-----------2-2-2-2---2-2-5p0------------------------0-5p0-----|
-----5/7-------3-3-3-3---2-2-----5/7--5-5-5-5-/-7-7-7-7-------5/7-|
---------0-0-0---------0--------------3-3-3-3-/-5-5-5-5-----------|
------------------------------------------------------------------|
                       *

outro 3 w/wah-wah
---5---5-(5)\---5----------------------------------------|
-8---8--------5---------5--------------------------------|
------------------7-6---5---------6^-(6)---6-6^-(6)^-(6)-|
----------------------7---7-7-5h7--------7---------------|
---------------------------------------------------------|
---------------------------------------------------------|

outro 3 cont w/wah-wah
---5---5-(5)\---5-------------------------------------------|
-8---8--------5---------5-----------------------------------|
------------------7-6---5-----------6---6-7p6---6^-(6)^-(6)-|
----------------------7---7-7-5-5h7---7-------7-------------|
------------------------------------------------------------|
------------------------------------------------------------|

outro 3 cont w/wah-wah
-------5---5-(5)\---5-------------------------------|
-----8---8--------5---------------------------------|
-(6)------------------7-6---------------------------|
--------------------------7-5-7-7-5h7-5-5h7-5h7-5-5-|
----------------------------------------------------|
----------------------------------------------------|
                                                     repeat and fade
comments
print report bad tab
I want to post or [tab]
guest
You may want to rate the tab now too:
select rating
Please do not post tabs as comments. Select "correction" instead!