Oops, an error
Loading. Please wait.

Speak Tab

ver3
ver3

Whole song

More versions @911Tabs.com
4,801 views 12 this week
1 commentread comment
1 2 3 4 5
excellent!
x 8
Autoscroll
+/-
esc
set tempo
stop
Contributor
Difficulty
intermediate
WARNING: You are trying to view
                                    content from Ultimate-Guitar.com
                                    in an unauthorized application,
                                    which is prohibited.

                                    Please use an official Ultimate
                                    Guitar Tabs application for iPhone,
                                    iPad or Android to access legitimate
                                    chords, guitar, bass, and drum tabs
                                    from Ultimate-Guitar.com database.

                                    Type "ultimate guitar tabs" in Apple
                                    App Store's or Android Market's
                                    search to find the application.
speak (low to high) CGCFAD         *=palm mute
                                   T=trem pick
                                   ^=bend
intro (dist) 3x
---------------------------------|
---------------------------------|
---------------------------------|
-3p2-2-2-----3p2---5-x-3-x-2-x-2-|
-3p2-2-2-----3p2---5-x-3-x-2-x-2-|
-3p2-2-2-2-2-3p2-2-5-x-3-x-2-x-2-|
         * *     *

intro 2 (dist)
-------------|
-------------|
---------2-2-|
-3p2-2-2-0-0-|
-3p2-2-2-0-0-|
-3p2-2-2-0-0-|

intro (dist) 3x
---------------------------------|
---------------------------------|
---------------------------------|
-3p2-2-2-----3p2---5-x-3-x-2-x-2-|
-3p2-2-2-----3p2---5-x-3-x-2-x-2-|
-3p2-2-2-2-2-3p2-2-5-x-3-x-2-x-2-|
         * *     *

intro 2 (dist)
-------------|
-------------|
---------2-2-|
-3p2-2-2-0-0-|
-3p2-2-2-0-0-|
-3p2-2-2-0-0-|

verse (dist)
---------------------------------|
---------------------------------|
---------------------------------|
-3p2-2-2-----3p2---5-x-3-x-2-x-2-|
-3p2-2-2-----3p2---5-x-3-x-2-x-2-|
-3p2-2-2-2-2-3p2-2-5-x-3-x-2-x-2-|
 * * * * * * * * * * * * * * * *

verse cont (dist)
-------------------------------------|
-------------------------------------|
-------------------------------------|
-3p2-2-2-----3p2---5-x-3-x-2-x-0-----|
-3p2-2-2-----3p2---5-x-3-x-2-x-0-----|
-3p2-2-2-2-2-3p2-2-5-x-3-x-2-x-0-0-0-|
 * * * * * * * * * * * * * * * * * *

verse cont (dist)
---------------------------------|
---------------------------------|
---------------------------------|
-3p2-2-2-----3p2---5-x-3-x-2-x-2-|
-3p2-2-2-----3p2---5-x-3-x-2-x-2-|
-3p2-2-2-2-2-3p2-2-5-x-3-x-2-x-2-|
 * * * * * * * * * * * * * * * *

verse cont (dist)
---------------------------------|
---------------------------------|
---------------------------------|
-3p2-2-2-----3p2---0---0---0-----|
-3p2-2-2-----3p2---0---0---0-----|
-3p2-2-2-2-2-3p2-2-0-0-0-0-0-0-0-|
 * * * * * * * * * * * * * * * *

verse cont (dist)
---------------------------------|
---------------------------------|
---------------------------------|
-3p2-2-2-----3p2---5-x-3-x-2-x-2-|
-3p2-2-2-----3p2---5-x-3-x-2-x-2-|
-3p2-2-2-2-2-3p2-2-5-x-3-x-2-x-2-|
 * * * * * * * * * * * * * * * *

verse cont (dist)
-------------------------------------|
-------------------------------------|
-------------------------------------|
-3p2-2-2-----3p2---5-x-3-x-2-x-0-----|
-3p2-2-2-----3p2---5-x-3-x-2-x-0-----|
-3p2-2-2-2-2-3p2-2-5-x-3-x-2-x-0-0-0-|
 * * * * * * * * * * * * * * * * * *

verse cont (dist)
-------------------------------------------------|
-------------------------------------------------|
-------------------------------0-2-2-2-/-5-5-0-0-|
-3p2-2-2-----3p2---5-x-3-x-2-x-0-0-0-0-/-3-3-0-0-|
-3p2-2-2-----3p2---5-x-3-x-2-x-0-0-0-0-/-3-3-0-0-|
-3p2-2-2-2-2-3p2-2-5-x-3-x-2-x-0-0-0-0-/-3-3-0-0-|
 * * * * * * * * * * * * * * *

chorus (dist)
----------------------------------------------------------|
----------------------------------------------------------|
----------------------------------------------------------|
-9-9-9-9-9-9-10-10-10-10-10-9-9-7-7-7-7-7-7-5-5-5-5-5-7-7-|
-7-7-7-7-7-7--7--7--7--7--7-7-7-5-5-5-5-5-5-3-3-3-3-3-5-5-|
----------------------------------------------------------|

chorus cont (dist)
----------------------------------------------------------|
----------------------------------------------------------|
----------------------------------------------------------|
-9-9-9-9-9-9-10-10-10-10-10-9-9-7-7-7-7-7-7-5-5-5-5-5-7-7-|
-7-7-7-7-7-7--7--7--7--7--7-7-7-5-5-5-5-5-5-3-3-3-3-3-5-5-|
----------------------------------------------------------|

chorus cont (dist)
----------------------------------------------------------|
----------------------------------------------------------|
----------------------------------------------------------|
-9-9-9-9-9-9-10-10-10-10-10-9-9-7-7-7-7-7-7-5-5-5-5-5-7-7-|
-7-7-7-7-7-7--7--7--7--7--7-7-7-5-5-5-5-5-5-3-3-3-3-3-5-5-|
----------------------------------------------------------|

chorus cont (dist)
----------------------------------------------------------|
----------------------------------------------------------|
----------------------------------------------------------|
-9-9-9-9-9-9-10-10-10-10-10-9-9-7-7-7-7-7-7-5-5-5-5-5-7-7-|
-7-7-7-7-7-7--7--7--7--7--7-7-7-5-5-5-5-5-5-3-3-3-3-3-5-5-|
----------------------------------------------------------|

intro (dist) 3x
---------------------------------|
---------------------------------|
---------------------------------|
-3p2-2-2-----3p2---5-x-3-x-2-x-2-|
-3p2-2-2-----3p2---5-x-3-x-2-x-2-|
-3p2-2-2-2-2-3p2-2-5-x-3-x-2-x-2-|
         * *     *

intro cont (dist)
---------------------|
---------------------|
---------------------|
-3-2-2-2-3-2-5-3-2-0-|
-3-2-2-2-3-2-5-3-2-0-|
-3-2-2-2-3-2-5-3-2-0-|
 * * * * * * * * * *

verse (dist)
---------------------------------|
---------------------------------|
---------------------------------|
-3p2-2-2-----3p2---5-x-3-x-2-x-2-|
-3p2-2-2-----3p2---5-x-3-x-2-x-2-|
-3p2-2-2-2-2-3p2-2-5-x-3-x-2-x-2-|
 * * * * * * * * * * * * * * * *

verse cont (dist)
-------------------------------------|
-------------------------------------|
-------------------------------------|
-3p2-2-2-----3p2---5-x-3-x-2-x-0-----|
-3p2-2-2-----3p2---5-x-3-x-2-x-0-----|
-3p2-2-2-2-2-3p2-2-5-x-3-x-2-x-0-0-0-|
 * * * * * * * * * * * * * * * * * *

verse cont (dist)
---------------------------------|
---------------------------------|
---------------------------------|
-3p2-2-2-----3p2---5-x-3-x-2-x-2-|
-3p2-2-2-----3p2---5-x-3-x-2-x-2-|
-3p2-2-2-2-2-3p2-2-5-x-3-x-2-x-2-|
 * * * * * * * * * * * * * * * *

verse cont (dist)
---------------------------------|
---------------------------------|
---------------------------------|
-3p2-2-2-----3p2---0---0---0-----|
-3p2-2-2-----3p2---0---0---0-----|
-3p2-2-2-2-2-3p2-2-0-0-0-0-0-0-0-|
 * * * * * * * * * * * * * * * *

verse cont (dist)
---------------------------------|
---------------------------------|
---------------------------------|
-3p2-2-2-----3p2---5-x-3-x-2-x-2-|
-3p2-2-2-----3p2---5-x-3-x-2-x-2-|
-3p2-2-2-2-2-3p2-2-5-x-3-x-2-x-2-|
 * * * * * * * * * * * * * * * *

verse cont (dist)
-------------------------------------|
-------------------------------------|
-------------------------------------|
-3p2-2-2-----3p2---5-x-3-x-2-x-0-----|
-3p2-2-2-----3p2---5-x-3-x-2-x-0-----|
-3p2-2-2-2-2-3p2-2-5-x-3-x-2-x-0-0-0-|
 * * * * * * * * * * * * * * * * * *

verse cont (dist)
-------------------------------------------------|
-------------------------------------------------|
-------------------------------0-2-2-2-/-5-5-0-0-|
-3p2-2-2-----3p2---5-x-3-x-2-x-0-0-0-0-/-3-3-0-0-|
-3p2-2-2-----3p2---5-x-3-x-2-x-0-0-0-0-/-3-3-0-0-|
-3p2-2-2-2-2-3p2-2-5-x-3-x-2-x-0-0-0-0-/-3-3-0-0-|
 * * * * * * * * * * * * * * *

chorus (dist)
----------------------------------------------------------|
----------------------------------------------------------|
----------------------------------------------------------|
-9-9-9-9-9-9-10-10-10-10-10-9-9-7-7-7-7-7-7-5-5-5-5-5-7-7-|
-7-7-7-7-7-7--7--7--7--7--7-7-7-5-5-5-5-5-5-3-3-3-3-3-5-5-|
----------------------------------------------------------|

chorus cont (dist)
----------------------------------------------------------|
----------------------------------------------------------|
----------------------------------------------------------|
-9-9-9-9-9-9-10-10-10-10-10-9-9-7-7-7-7-7-7-5-5-5-5-5-7-7-|
-7-7-7-7-7-7--7--7--7--7--7-7-7-5-5-5-5-5-5-3-3-3-3-3-5-5-|
----------------------------------------------------------|

chorus cont (dist)
----------------------------------------------------------|
----------------------------------------------------------|
----------------------------------------------------------|
-9-9-9-9-9-9-10-10-10-10-10-9-9-7-7-7-7-7-7-5-5-5-5-5-7-7-|
-7-7-7-7-7-7--7--7--7--7--7-7-7-5-5-5-5-5-5-3-3-3-3-3-5-5-|
----------------------------------------------------------|

chorus cont (dist)
----------------------------------------------------------|
----------------------------------------------------------|
----------------------------------------------------------|
-9-9-9-9-9-9-10-10-10-10-10-9-9-7-7-7-7-7-7-5-5-5-5-5-7-7-|
-7-7-7-7-7-7--7--7--7--7--7-7-7-5-5-5-5-5-5-3-3-3-3-3-5-5-|
----------------------------------------------------------|

chorus cont (dist)
----------------------------------------------------------|
----------------------------------------------------------|
----------------------------------------------------------|
-9-9-9-9-9-9-10-10-10-10-10-9-9-7-7-7-7-7-7-5-5-5-5-5-7-7-|
-7-7-7-7-7-7--7--7--7--7--7-7-7-5-5-5-5-5-5-3-3-3-3-3-5-5-|
----------------------------------------------------------|

chorus cont (dist)
----------------------------------------------------------|
----------------------------------------------------------|
----------------------------------------------------------|
-9-9-9-9-9-9-10-10-10-10-10-9-9-7-7-7-7-7-7-5-5-5-5-5-7-7-|
-7-7-7-7-7-7--7--7--7--7--7-7-7-5-5-5-5-5-5-3-3-3-3-3-5-5-|
----------------------------------------------------------|

chorus cont (dist)
----------------------------------------------------------|
----------------------------------------------------------|
----------------------------------------------------------|
-9-9-9-9-9-9-10-10-10-10-10-9-9-7-7-7-7-7-7-5-5-5-5-5-7-7-|
-7-7-7-7-7-7--7--7--7--7--7-7-7-5-5-5-5-5-5-3-3-3-3-3-5-5-|
----------------------------------------------------------|

interlude
----------------------------------------------------------------|
---12---12---12---10---8-8-/-10----12---12---12---10---8-8-/----|
-9----9----9----7----5---5-/--7--9----9----9----7----5---5-/----|
----------------------------------------------------------------|
----------------------------------------------------------------|
----------------------------------------------------------------|

interlude cont
----------------------------------------------------------------|
---12---12---12---10---8-8-/-10----12---12----------------------|
-9----9----9----7----5---5-/--7--9----9----9-7-7-10-------------|
---------------------------------------------7-7-10-------------|
---------------------------------------------5-5--8-------------|
----------------------------------------------------------------|

solo w/wah-wah
-/-12-12-------12-----12--------------------------------------------------------------|
-/-12-11-12-12-12-15^----15p12h15p12--------------------------------------------------|
---------12--9-12--------------------15p14h15p14p12----12-14^-(14)^-14^-14^-14^-(14)\-|
----------------------------------------------------14--------------------------------|
--------------------------------------------------------------------------------------|
--------------------------------------------------------------------------------------|
   T  T  T   T  T

solo w/wah-wah
---------------------------------------------------------------------------------------|
------------------------------------12-14-14-12----12----14-14-12----12----14p12----12-|
-2^-2h3-(3)^-2h0---0h2p0---0h2-0-4/-12-14-14-12----12----14-14-12----12----14p12----12-|
-----------------2-------2----------------------14----14----------14----14-------14----|
---------------------------------------------------------------------------------------|
---------------------------------------------------------------------------------------|

chorus (dist)
----------------------------------------------------------|
----------------------------------------------------------|
----------------------------------------------------------|
-9-9-9-9-9-9-10-10-10-10-10-9-9-7-7-7-7-7-7-5-5-5-5-5-7-7-|
-7-7-7-7-7-7--7--7--7--7--7-7-7-5-5-5-5-5-5-3-3-3-3-3-5-5-|
----------------------------------------------------------|

chorus cont (dist)
----------------------------------------------------------|
----------------------------------------------------------|
----------------------------------------------------------|
-9-9-9-9-9-9-10-10-10-10-10-9-9-7-7-7-7-7-7-5-5-5-5-5-7-7-|
-7-7-7-7-7-7--7--7--7--7--7-7-7-5-5-5-5-5-5-3-3-3-3-3-5-5-|
----------------------------------------------------------|

chorus cont (dist)
----------------------------------------------------------|
----------------------------------------------------------|
----------------------------------------------------------|
-9-9-9-9-9-9-10-10-10-10-10-9-9-7-7-7-7-7-7-5-5-5-5-5-7-7-|
-7-7-7-7-7-7--7--7--7--7--7-7-7-5-5-5-5-5-5-3-3-3-3-3-5-5-|
----------------------------------------------------------|

chorus cont (dist)
----------------------------------------------------------|
----------------------------------------------------------|
----------------------------------------------------------|
-9-9-9-9-9-9-10-10-10-10-10-9-9-7-7-7-7-7-7-5-5-5-5-5-7-7-|
-7-7-7-7-7-7--7--7--7--7--7-7-7-5-5-5-5-5-5-3-3-3-3-3-5-5-|
----------------------------------------------------------|

chorus cont (dist)
----------------------------------------------------------|
----------------------------------------------------------|
----------------------------------------------------------|
-9-9-9-9-9-9-10-10-10-10-10-9-9-7-7-7-7-7-7-5-5-5-5-5-7-7-|
-7-7-7-7-7-7--7--7--7--7--7-7-7-5-5-5-5-5-5-3-3-3-3-3-5-5-|
----------------------------------------------------------|

chorus cont (dist)
----------------------------------------------------------|
----------------------------------------------------------|
----------------------------------------------------------|
-9-9-9-9-9-9-10-10-10-10-10-9-9-7-7-7-7-7-7-5-5-5-5-5-7-7-|
-7-7-7-7-7-7--7--7--7--7--7-7-7-5-5-5-5-5-5-3-3-3-3-3-5-5-|
----------------------------------------------------------|

chorus cont (dist)
----------------------------------------------------------|
----------------------------------------------------------|
----------------------------------------------------------|
-9-9-9-9-9-9-10-10-10-10-10-9-9-7-7-7-7-7-7-5-5-5-5-5-7-7-|
-7-7-7-7-7-7--7--7--7--7--7-7-7-5-5-5-5-5-5-3-3-3-3-3-5-5-|
----------------------------------------------------------|

chorus cont (dist)
----------------------------------------------------------|
----------------------------------------------------------|
----------------------------------------------------------|
-9-9-9-9-9-9-10-10-10-10-10-9-9-7-7-7-7-7-7-5-5-5-5-5-7-7-|
-7-7-7-7-7-7--7--7--7--7--7-7-7-5-5-5-5-5-5-3-3-3-3-3-5-5-|
----------------------------------------------------------|

chorus cont (dist)
----------------------------------------------------------|
----------------------------------------------------------|
----------------------------------------------------------|
-9-9-9-9-9-9-10-10-10-10-10-9-9-7-7-7-7-7-7-5-5-5-5-5-7-7-|
-7-7-7-7-7-7--7--7--7--7--7-7-7-5-5-5-5-5-5-3-3-3-3-3-5-5-|
----------------------------------------------------------|

outro 1 (dist) 3x
---------------------------------|
---------------------------------|
---------------------------------|
-3p2-2-2-----3p2---5-x-3-x-2-x-2-|
-3p2-2-2-----3p2---5-x-3-x-2-x-2-|
-3p2-2-2-2-2-3p2-2-5-x-3-x-2-x-2-|
 * * * * * * * * * * * * * * * *

outro 2 (dist)
--0--0--0--0--0--0--0--0--0--0--0--0--0--0--0--0--0--0--0--0--0--0--0--0--0--0-|
-12-12-12-12-12-12-12-12-12-12-12-12-12-13-13-13-13-13-13-13-13-13-13-13-13-13-|
-------------------------------------------------------------------------------|
-------------------------------------------------------------------------------|
-------------------------------------------------------------------------------|
-------------------------------------------------------------------------------|

outro 2 cont (dist)
--0--0--0--0--0--0--0--0--0--0--0--0--0----0--0--0--0--0--0--0--0--0-|
-15-15-15-15-15-15-15-15-15-15-15-15-15-/-17-17-17-17-17-17-17-17-17-|
---------------------------------------------------------------------|
---------------------------------------------------------------------|
---------------------------------------------------------------------|
---------------------------------------------------------------------|
comments
print report bad tab
1 comment total.
0 reply
sonyashadron wrote on December 30 2006, 11:58 pm

i love this song and the way its plyed on the guitar and tabed out here you now what your playing i played this in my high school talent show and everyone knew what i was playing

I want to post or [tab]
guest
You may want to rate the tab now too:
select rating
Please do not post tabs as comments. Select "correction" instead!