Oops, an error
Loading. Please wait.

Gypsy Punks Underdog World Strike Chords

3,655 views 11 this week
no commentswrite comment
1 2 3 4 5
excellent!
x 1
add to favorites launch autoscroll
font size
0
reset
transpose
0
reset
highlight chords
display chords
Autoscroll
+/-
esc
set tempo
stop
Contributor
Difficulty
novice
WARNING: You are trying to view
                                    content from Ultimate-Guitar.com
                                    in an unauthorized application,
                                    which is prohibited.

                                    Please use an official Ultimate
                                    Guitar Tabs application for iPhone,
                                    iPad or Android to access legitimate
                                    chords, guitar, bass, and drum tabs
                                    from Ultimate-Guitar.com database.

                                    Type "ultimate guitar tabs" in Apple
                                    App Store's or Android Market's
                                    search to find the application.
Gypsy Punks: Underdog World Strike

1.	"Sally"  	3:03
2.	"I Would Never Wanna Be Young Again"  	3:46
3.	"Not a Crime"  	4:31
4.	"Immigrant Punk"  	3:45
5.	"60 Revolutions"  	2:58
6.	"Avenue B"  	3:08
7.	"Dogs Were Barking"  	4:53
8.	"Oh No"  	2:59
9.	"Start Wearing Purple"  	3:43
10.	"Think Locally, Fuck Globally"  	4:23
11.	"Underdog World Strike"  	5:24
12.	"Illumination"  	3:52
13.	"Santa Marinella"  	5:28
14.	"Undestructable"  	4:53
15.	"Mishto!"  	



Title: Sally
Artist: Gogol Bordello
Album: Gypsy Punks
Tabber: Duncan Usher 

Intro: Am

e|-------------------|
B|---1---1----1---1--|
G|---2---2----2---2--|
D|---2---2----2---2--|
A|-0--------0--------|
E|-----0--------0----|


Am
Sally was a fifteen year old girl from Nebraska

Gypsies were passing through her little town
Dm
They dropped something on the road , she picked it up...
Am
And cultural revolution right away begun!
Dm                              Am  (add finger to 3rd fret of G for the counter chord thing)
Oh no, cultural revolution just begun
Dm                              Am
Oh no, cultural revolution just begun


Am
They always were afraid that I was schizophrenic...

They always were afraid schto ja rodinu prodal
Dm
a po pravde ja bil prosto malenkij medvedik
Am
sel na velosipedik i vsjo nahuj proebal...
Dm                              Am
Oh no, cultural revolution just begun
Dm                              Am
Oh no, cultural revolution just begun


Dm                                   Am
From all the tables of contents that Mother Earth provides
Dm                       Am
I'd like to be a big fat fucking fly
Dm                                      Am
The one that spins around your head all day and all night
E
and sound of it is just like a what?...
   Dm                         Am
...but by the accident of some kind divine dispensation
Dm                Am
I ended up being walking United Nation
Dm                  Am
And I survive even fucking radiation
E
A big fat fucking what?And I would visit you a lot

Outro: Am




Title: I Would Never Wanna Be Young Again
Artist: Gogol Bordello
Album: Gypsy Punks
Tabber: Duncan Usher 


Intro:   Bb
         Bb, F#


Bm
By the desperate 'n' confused

Emotion of the youth
                         F#
I was brought to Crisis land

Where after getting checked for fleas

And barricades of embassies
                                      Bm
I was sculpted to be overworked and silent

But since the early age

I broke out of the cage

And learned how to make marching drums
        F#
From a fish can

And I knew I'll run away

And so without further delay

I said "Two tears in a bucket
      Bm
Motherfuck it!"



         Em                  Bm
And it seems like I ran and ran
             Em               Bm
Through the garbage and quicksand
            Em                   
And after getting checked for fleas
       Bm
and barricades of embassies
F#
I would never never never never

wanna be young again!...

e|---------------------||
B|---------------------||
G|---4---4---4---4-----||
D|---------------------||
A|-2-------------------||
E|-----2---3---2-------||


Key goes up: A, Bb, G

            Cm
But sudden wind it stole my hat
 
And I went on chasing it
                                     G   
Before I was just another burned out carnie

Every freak on every day

Lives a life one certain way
                                       Cm
And that way is ain't no nothin' but a birthright~

But since the early age

I broke out of the cage...
                               
And learned how to make marching drums
        G
From a fish can

And I knew I'll run away

And so without further delay

I said "Two tears in a bucket
      Cm
Motherfuck it!"




        Fm                  Cm 
And it seems like I ran and ran
            Fm                Cm
through the garbage and quicksand
            Fm
and after getting checked for fleas
           Cm
and barricades of embassies
G
I would never never never never

wanna be young again...


e|---------------------||
B|---------------------||
G|---5---5---5---5-----||
D|---------------------||
A|-3-------------------||
E|-----3---4---3-------||


Next Bit:    Cm, G      (basically the intro but in the new key)


        Fm                  Cm 
And it seems like I ran and ran
            Fm                Cm
through the garbage and quicksand
            Fm
and after getting checked for fleas
           Cm
and barricades of embassies
G
I would never never never never

wanna be young again...

Violin Bit:

e|--15----15-------15-16-15-16--19-21-22----------||
B|-----18----16-18--------------------------------||
G|------------------------------------------------||
D|------------------------------------------------||
A|------------------------------------------------||
E|------------------------------------------------||


Outro:    Cm, G


Artist: Gogol Bordello     http://www.gogolbordello.com/
Track: Not A Crime
Album: Gypsy Punks
Tabber: Woodshed


Riff A

e|-------------------------------|------------------------|
B|-------------------------------|------------------------|
G|-------------------------------|------------------------|
D|-------------------------------|------------------------|
A|------------0-2-0---0---------|-------0-2p0----0--------|
E|--12\--0--3-------3---3--0----|--0--3--------3----------|


e|---------------------------|---------------------------------|
B|---------------------------|---------------------------------|
G|---------------------------|---------------------------------|
D|---------------------------|---------------------------------|
A|---------0-2p0---0---------|--2p0---0--------2p0---0---------|
E|----0--3-------3---3p0-----|------3--------------3---3p0-----|

Riff Ax4  (minus slide from 12th fret on repeats)

Ex3 bars followed by F#5

Ex12 bars

Riff A X2
In the old times it was not a crime. Drop the charges. The people realise...

Ex8 bars
In the old times, in the old times...

Ex3 bars followed by F#5

Ex12 bars

Ex3 bars followed by F#5

Ex12 bars


BREAKDOWN SECTION

Riff B

e|--------------------------------------|-------------------------------|
B|--------------------------------------|-------------------------------|
G|--------------------------------------|-------------------------------|
D|------0h2-2---2---2-p0----------------|----------0h2-2---2---2/5------|
A|--------------------------------------|-------------------------------|
E|--------------------------------------|-------------------------------|

Reality...

e|-----0-----------------------------------------------------------|
B|----/5-3-2-3\2---------------------------------------------2-----|
G|----------------4---3h4p3---3--------------------3-4\3---3-------|
D|--------------------------5---5-4----------2-4/5-------5---------|
A|-----------------------------------------------------------------|
E|-----------------------------------------------------------------|


e|-----0-----------------------------------------------------------|
B|----/5--3-2h3\2--------------------------------------------------|
G|-----------------4---3h4p3----3----------------3-4p3-------------|
D|----------------------------5---5-4------2-4/5-------5\4--2------|
A|-----------------------------------------------------------------|
E|-----------------------------------------------------------------|


e|--------------------------------------------------------------------|
B|-----5-2h3p2-/5-------5-3-2------------5-3-2----------------2-------|
G|----------------------------3h4--------------3/4-3/4---3\4----------|
D|--------------------------------------------------------------------|
A|--------------------------------------------------------------------|
E|--------------------------------------------------------------------|
                  In the old time...


e|-----------------------------------------------------------------|
B|-----5-2h3p2-/5---5-3-2-----------------5--5--5------------------|
G|-------------------------3h4-------------------------------------|
D|------------------------------------------------------2-2-2------|
A|------------------------------------------------------2-2-2------|
E|------------------------------------------------------0-0-0------|

                                                        NOT A CRIME!

Ex3 bars followed by F#5

Ex12 bars

F# - E - F# - E
(Ukranian)    Not a crime

F# - E - F# - E
(Ukranian)    Not a crime




[Russian]: -I've managed to get the letter, Nikolay Ivanovich. 
-And if it is forbidden again? 
-Absolutely forbidden! Belinsky* to Gogol! Ah, Nikolay Ivanovich, its such a letter!


Drop the charges!

[Russian]:Gimme the forbidden! 

The fire and the power, yuh?!

[Ukrainian]

(In the old time it was not a crime, drop the charges,
Don't you realise the sun rises?)

(Drop the charges, man! Drop the charges!) 

(Right you are! And this time, let the people know...)

In the old time, in the old time,
In the old time it was not a crime!
(What are you talking about?)
In the old time, in the old time,
In the old time it was not a crime!

Not a crime!
(It's all nonsensical!)
Not a crime!

In the old time, in the old time,
In the old time it was not a crime!
In the old time, in the old time,
In the old time it was not a crime!

(*coughs*) 
Not a crime! 
Drop the charges!
Not a crime!
Not a crime!
Not a crime!

Reality!

[Russian]: Oh, gimme the forbidden! Aphorism*
Spices, creation, realisation, naturalisation,
What are you talking about? It's all about time 'cos today you go to nature.

Not a crime!
In the old time, in the old time,
In the old time it was not a crime!
In the old time, in the old time,
In the old time it was not a crime!

(Not a crime, not a crime!)
Not a crime!
[Russian]: Oh, gimme the forbidden!
Not a crime!
Not a crime!
Drop the charges, man!
Not a crime!
Drop the charges!

[Russian] [I] have been sitting dangling my legs, [I] didn't want to work 
Not a crime!
[Russian] [I] have been sitting dangling my legs, [I] didn't want to work 
Not a crime!
(It's not a crime, it's legal - perfectly natural). 

IMMIGRANT PUNK
Tabbed by: Ben Wright

Standard tuning EADGBe

Any feedback appreciated, either leave a comment or email friskyfleabag@aol.com


         Am
               |---PM---|       |--PM--|          |---------PM----------------|
e|--------0---0------------0---0------------0---0-----------------------------|
B|--------1---1------------1---1------------1---1-----------------------------|
G|--------2---2------------2---2------------2---2-----------------------------|
D|--------2---2------------2---2------------2---2-------22220000--------------|
A|-----0--------2223----0----------------0--------2223----------333-----------|
E|----------0---------0------0---3330--0------0--------------------3---0------|

That's the basic riff for most of the song. When I went to see them live though the 
played it like this:


         Am
               |---PM---|       |--PM--|          |---------PM----------------|
e|--------0---0------------0---0------------0---0-----------------------------|
B|--------1---1------------1---1------------1---1-----------------------------|
G|--------2---2------------2---2------------2---2-----------------------------|
D|--------2---2------------2---2------------2---2-----------------------------|
A|-----0--------2223----0----------------0--------2223--77775555333-----------|
E|----------0---------0------0---3330--0------0--------------------3---0------|

Obviously it can be played either way, it's down to you as to what you think sounds 
easier to play.

In the verse after a while it then goes like this:

"There is a little punk rock mafia
Everywere you go" (00:56)
      Dm         Am          Dm          Am          Dm
e|----1-----1-----0-----0-----1-----1-----0-----0-----1--(let ring)---------|
B|----3-----3-----1-----1-----3-----3-----1-----1-----3---------------------|
G|----2-----2-----2-----2-----2-----2-----2-----2-----2---------------------|
D|-0--0-----0-----2-----2--0--0-----0-----2-----2-----0---------------------|
A|-------0-----0-----------------0-----0------------------------------------|
E|-------------------0-----------------------0------------------------------|

The open strings played here basically imitate the bass. The whole song is pretty much 
two riffs just alternating between each other, but for the bridge at 02:48

"Of course we immigrants wanna sing all night long"

     Am
e|----0--------|
B|----1--------|
G|----2--------|
D|----2--------| x16
A|----0--------|
E|-------------|


"So I'm relaxed, I'm just larking around" 02:59 (bass adapted to guitar)

   (all palm muted)
e|--------------------------------------------------------------------------|
B|--------------------------------------------------------------------------|
G|--------------------------------------------------------------------------|
D|--------------------------------------------222--000----------------------|
A|--0--002223--00000--------00000002223--000------------333-----------------|
E|--------------------33-0---------------------------------3----------------|


OR
   (all palm muted)
e|--------------------------------------------------------------------------|
B|--------------------------------------------------------------------------|
G|--------------------------------------------------------------------------|
D|--------------------------------------------------------------------------|
A|--------------------------------------------777--555--333-----------------|
E|--5--557778--55555--33-0--55555557778--555---------------3----------------|


Again it can be played either way, down to personal preference.

That's it pretty much, any comments or ratings very much appreciated :o)



Immigrant, immigrant, immigrant Punk
Immigrant, immigrant, immigrant Punk
Immigrant, immigrant, immigrant Punk[x2]
Punk!

Upon arriving to the melting pot
I get penciled in as a goodamn white
Now that I am categorized
Officer gets me naturalized

Immigrant Punk
Immigrant, immigrant, immigrant Punk

Now that I'm living up in God knows where
Sometime it gets hard without a friend
But as I am lurking around
Hoptza! I see another immigrant punk!
There is a little punk rock mafia
Everywhere you go
She is good to me and I am good to her...

Legalize me! Realize me!

Immigrant, immigrant, immigrant Punk
Immigrant, immigrant, immigrant Punk
Immigrant, immigrant, immigrant Punk

Despite the living up in USA
I'm still holding up in all my ways
I gotta friends, we gotta band
We still make sound you can't stand
Without banging on some big old pot
Without getting out of bed
But I'm relaxed, I'm just lurking around
Hoptza! I see another immigrant punk!
There is a little punk rock mafia
Everywhere you go
She is good to me and I am good to her...

Legalize me! Realize me!
Party!

Of course we immigrants wanna sing all night long
Don't you know the singing salves the troubled soul?
So I'm relaxed, I'm just lurking around
I got a method and you don't
You got a dictionary kicking around?
Look up the immigrant, immigrant, immigrant punk!

Punk
Immigrant Punk
Immigrant, immigrant, immigrant Punk
Immigrant, immigrant, immigrant Punk

Immigrant, immigrant, immigrant Punk
Immigrant, immigrant, immigrant Punk
Immigrant, immigrant, immigrant Punk

Punk! Punk! Punk! Punk!
I Punk!


60 Revolutions

It really bums me out that there are no really good tabs of this amazing song by this 
band.  Here’s the full guitar parts, tabbed by ear by John Ox:

Intro

e|--------------------------------------------------------------|
B|--------------------------------------------------------------|
G|-14---17-14-13---16---13-13-16-13-14------14-14-17-14-13-16---|
D|-------------------------------------14-----------------------|
A|--------------------------------------------------------------|
E|--------------------------------------------------------------|

Intro Chords (Listen for the strumming pattern, pretty simple)

e|--------------------------------------------------------------|
B|--------------------------------------------------------------|
G|-2--------------------------------2-------2-------------------|
D|-2----------2---------2-----------2-------2------------2------|
A|-0----------2---------2-----------0-------0------------2------|
E|------------0---------0--------------------------------0------|

And then...

Accordion (Transcribed for Guitar)

e|----------------------------------|
B|----------------------12-13-12----|
G|-------12-13-14-13-14----------14-|
D|-14-13----------------------------|
A|----------------------------------|
E|----------------------------------|

A5                E5         E5
Sixty revolutions per minute
                   A5
This is my regular speed
A5                       E5            E5
So how do you want me to live with it?

How do you want me to live with it?

Chorus:

A5              E5
Without ringing all alarms
E5                   A5
Without overthrowing czars
A5                   E5
Without emptying the bars
E5
Without screwing with your charts

Then another verse, then the bridge

e|----------------------------|
B|----------------------------|
G|-14-12---7-9---10-9-7-4-5---|
D|----------------------------|
A|-12-10---5-7---8—7-5-2-3----|
E|----------------------------|

Then more stuff.  Throw in the intro riff liberally.  Bass follows the chords, which 
pretty constant through the whole song.

If you want to add a solo, use this scale.

e|-----------------------------5-|
B|-------------------------6-9---|
G|-------------------5-7-9-------|
D|-------------6-7-9-------------|
A|-------5-7-8-------------------|
E|-5-7-8-------------------------|

60 revolutions per minute
this is my regular speed
So how do you want me to live with it?
How do you want me to live with it?
Without ringing all alarms!
Without overthrowing czars!
Without emptying the bars!
Without screwing with your charts!

60 revelations per minute
this is my regular need
So how do you want me to live with it?
How do you want me to live with it?
Without ringing all alarms!...
Without ringing all alarms!
Without overthrowing czars!
Without emptying the bars!
Without screwing with your charts!

I'm gathering new generation
That's gonna stand up to it
To this karaoke dictatorship
Where posers and models with guitars
Boogie to the shit for beats
I make a better rock revolution
Alone with my dick!
Without ringing all alarms!
Without overthrowing czars!
Without emptying the bars!
Without screwing with your charts!

si el america me lo bate que rico chocolate
no esperabas que por alguien me mate
si el america me lo bate que rico chocolate
no esperabas que por alguien me mate
Without ringing all alarms!
Without overthrowing czars!
Without emptying the bars!
Without screwing with your charts!

sesenta por minuto es mi reputacion
y no te estoy hablando yo de revolucion
hace mucho tiempo que yo ya no te decian
basta de injusticia, muerte y policia.

basta de lo que digas ya esta todo arreglado
digas lo que digas yo te mando deportado
el que tiene impone y sobre la ley dispone
mientras que el pobre es pobre
pobre, pobre y otro se la come

pobre, pobre, pobre, pobre y otro se la come come
pobre, pobre, pobre, pobre y otro se la come come


Avenue B

Okay so the progression is just this;
   Am-E and some Dm

Sitting in the russian bath house on the avenue B
no matter how much we sweat we just can't agree
ai razminku yorshikom provodim my
nobody learns no nothing from no history
Tall little Sally plays with magic ebbles
Dasha sells equipment to the Chechnian rebels
ya vihozgu iz anala v astral
tam mnogo chego slishal no ne zapisal
nesmotrja na SE. SHE. A. ne poterjal azarta
buhaju strogo kazdoje 8-e marta
sitting in the bath house on the avenue B
and never agree...
...but Sally all empires fall... even trends they fade away
even complete (Stranger) asshole can lead you astray...
but god damn it, next round is on me
Nobody learns no nothin' from no history
Tall little sally my darlin' your panic is so charming
your shopping techniques are amazing
your celebrity erudition is disarming... Yura viruchai!

OH NO
Starts with strumming Em...

Em                              B
Sometimes when facing common trouble
                      Em
When whole town is screwed
                    B
We become actually human
                     Em 
Act like Prometheus would
                        A 
Suddenly there is more humor
                    G
And a party tabor style
                     B
People ringing one another
                           Em
"Yo man, how was your blackout?"
                        B 
Suddenly there is more music
                              Em 
Made with the buckets in the park
                             B
Girls are dancing with the flashlights
                   Em
I got only one guitar!
                          A 
And you see brothers and sisters
                         G
All engaged in sport of help
                     B    
Making merry out of nothing
                 Em 
Like in refugee camp

Em  
           B                         Em 
Oh yeah Oh no, it doesn't have to be so
                    B
It is possible any time anywhere
                  Em 
Even without any dope
           B                         Em
Oh yeah Oh no, it doesn't have to be so
                 B                     Em        
Forces of the creative mind are unstoppable!

and so on...


Sometimes when facing common trouble
When whole town is screwed
We become actually human
Act like Prometheus would
Suddenly there is more humor
And a party tabor style
People ringing one another
"Yo man, how was your blackout?"
Suddenly there is more music
Made with the buckets in the park
Girls are dancing with the flashlights
I got only one guitar!
And you see brothers and sisters
All engaged in sport of help
Making merry out of nothing
Like in refugee camp


Oh yeah Oh no, it doesn't have to be so
It is possible any time anywhere
Even without any dough
Oh yeah Oh no, it doesn't have to be so
Forces of the creative mind are unstoppable!

And you think, All right, now people
They have finally woked up
But as soon as the trouble over
Watch them take another nap
Nobody is making merry
Only trotting scared of boss
Everybody's making hurry
For some old forgotten cause
But one thing is surely eternal
It's condition of a man
Who don't know where he is going
Who don't know where does he stand
Who's dream power is corked bottle
Put away in dry dark place
Who's youth power is well buried
Under propaganda waves
Who's dream life is in opposition
With the life he leads today
Who's beaten down in believing
It just kinda goes this way!
Oh no, it doesn't have to be so
Forces of the creative mind are unstoppable!

START WEARING PURPLE
Am
Start wearing purple wearing purple
                            E7
Start wearing purple for me now
E7                                    
All your sanity and wits they will all vanish
                                 Am
I promise, it's just a matter of time

So yeah
Am                                      
Start wearing purple wearing purple 
                            E7
Start wearing purple for me now

All your sanity and wits they will all vanish
                                 Am
I promise, it's just a matter of time
                          Am
I met you when you were a twenty, and I was twenty
                                 E7
and thought that some years from now
E7
a purple little little lady will be perfect
                          Am
for dirty old and useless clown

So yeah
Am
Start wearing purple wearing purple 
                            E7
Start wearing purple for me now
E7
All your sanity and wits they will all vanish
                                 Am
I promise, it's just a matter of time
                   Am
So yeah, I know it all from Diogenes to the Foucault
                           E7
from Lozgechkin to Passepartout
E7
I ja kljanus obostzav dva paltza
                                         Am
schto ti ha schto muzika poshla a zvuk gavno

Am
Start wearing purple wearing purple
                            E7 
Start wearing purple for me now

Start wearing purple for me now
E7
All your sanity and wits they will all vanish
                                 Am
I promise, it's just a matter of time
              Am                                E7
So Vio-Vio-Violetta Etta Va-va-va-vaja dama ti moja
                                                  Am
Eh podayte nam karetu, vot etu, i mi poedem k ebenjam
Am
So yeah, ah start wearing purple wearing purple
                            E7
Start wearing purple for me now
E7
All your sanity and wits, they will all vanish
                                 Am
I promise, it's just a matter of time


"THink Locally Fuck Globally"
STILL TRYING TO TAB IF YOU FIGURE IT OUT TELL ME!!!!!!!!!!!
riley_rousseau_allen@yahoo.com

UNDERDOG WORLD STRIKE
STILL TRING TO TAB IF YOU FIGURE IT OUT TELL ME!!!!!!!!!!!


ILLUMINATION
Verse:
Am                     Am
Don't believe them for a moment
Dm            E
For a second, do not believe, my friend
Am               Am             Dm
When you are down, them are not coming
E                 Am
With a helping hand
               Am              Dm
Of course this is no us and them
         E        (play like intro)Am   Am
But them they do not think the same
Dm            E
It's them who do not think

Chorus : the strumming is more casual here but the same chords

Am                 Dm         E
They never step on spiritual path
Am                        Dm               E
They paint their faces so differently from ours
Am                    Dm
And if you listen closely
    E                  Am(in intro rhythm)Am     Dm
That war it never stops
    E
That war it never stops


SANTA MARINELLA

F#                  H
O solnce Santa Marinelly,
              F#
izlizannyi toboyu,
                A
Ya poluchal ne raz, tai-da-rida
                       F#
V posolstvah S-SH-A otkaz
Tam nedaleko ot Rima
Est gorod Palestrina
Zvezda pereferii, vsja v maslinah,
stala nasha malina

O mama Palestrina, vstrechajte pyanih pilligrimov,
Bez prava na vyezd, bez vizy na vdoh, bez vizy na vidoh
Ya vzmolilsa "Che cazzo! Io porca Madonna!"
Gde tletvorniy pod'ezd, ili etot ot'ezd delo musoroprovod

A                            G                  F#m
Solo perche ti amo mia madre ah! Crescendo paranoia.
A                            G            F#
Solo perche ti amo mia madre ah! Porca Madonna.

F#                  
My obliko Russo amorale
              F#             
chest' raspizdoto my ne zamarali
   A
Da uno da due
   G                  F#
Da uno da stronzo puttana

Na Americana (bazar takoi v Rime) vse v rjad stoyali (uno Mille Lire)
Poeti, yuristi, mediki - vse farzovoi stali
Hohlomu-samovari (redkost-tovari)
vse fuflo tolkali (krutiye navari)
No drug pered drugom vsezh svoi otjezd opravdali

Ya na Piazza Navona,
Sidel, rastjagival shkavarku,
Nu, konechno, flirtoval,
No i sem'ye pomogal

A ya na rimskoi mostovoi,
ya lezhal, zhdal priboj, oi-oi-oi,
Ya tak prosil pit, a tut eshe etot Papa (Rimskiy)
Ya s detstva ego hotel zamochit

O carabinery,
ya vam dokazival ne raz,
Chto muzikantu vo vrema kaifa
Smotret nuzhno prjamo v glaz

Solo perche ti amo mia madre ah! Porca Madonna.
Solo perche ti amo mia madre ah! Crescendo paranoia.

Mi obliko Russo amorale
Chest' raspizdoto my ne zamarali

Da uno da due
Da uno paranormale.

(Sono emigranto)

Solo perche ti amo mia madre ah....
Solo perche ti amo mia madre ah....

Da uno da due
Da uno stronzo merdoso
Da uno da due
Da uno porca puttana

(Spoken): Prekrasnaya novost
ebut v paperdo?
Ya ih-to mudohat, Zamudohal mudoha 
...la-la-la

A solnce Santa Marinelli
Vgrizalos nam v capilljari
A nasha nadezhda spolzala po stenam, muh ne otgonjaya,
No vot kak-to odnazhdi, ne znaju uzh kak
Prishlo I nam dobro iz-za okeana
I togda, na rashodnjak.
A!
I togda na rashodnjak! 


Title: Undestructable
Band: Gogol Bordello
Album: Gypsy Punks
Tabber: Duncan Usher 


Intro: Em  F G C

           Em                    F
When I was younger I lived in fear
                G                   C
That incarceration of some kind is near
             Em                 F
I checked my head in tact with rules
              G              C
I nearly became a goddamn fool
                    Am              F
But I've heard voices not in the head
              G                C
Out in the air they called ahead
                         Am
Through ripped out speakers
                    F
Through thick and thin
                  G
They found a shelter
            C
Under my skin


    F    G
How many darkest moments and traps
     Am
Still lay ahead of us          *Undestructable*
    F    G
How many final frontiers
            Am
We gonna mount

And maybe no victory laps   *Undestructable*
    F      G
But if you stepped on path of sacred art
        Am
and stuck it out through thick and thin         *Undestructable*
   F                   G
God knows you become one

With undestructable

Intro: Em  F  G  C


         Em                   F
And so no longer live I in fear
             G                         C
Them are too greedy to pay my asylum bills
          Em                             F
This is my life and freedom is my profession
           G                                C
This is my mission throughout all flight duration
           Am                 F
There is a core and it's hardcore
             G                   C
All is hardcore when made with love
          Am                   F
Love is a voice of a savage soul
             G
This savage love is
           C
Undestructable


   F     G
How many darkest moments and traps
    Am
Still lay ahead of us          *Undestructable*
    F    G
How many final frontiers
           Am
We gonna mount

And maybe no victory laps   *Undestructable*
    F      G
But if you stepped on path of sacred art
     Am
and stuck it out through thick and thin         *Undestructable*
    F                 G
God knows you become one

With undestructable


Intro: Em  F  G  C


                   Am   F   G   C
Undestructable
x3


Mishto : 
E - Am 

Dm-Cm 

Em-Bm


Sha bu'et kruto blya! 
Sha bu'et kruto!


comments
We did not receive enough feedback on this tab! Please rate:
1 2 3 4 5
I want to post or [tab]
guest
You may want to rate the tab now too:
select rating
Please do not post tabs as comments. Select "correction" instead!