Oops, an error
Loading. Please wait.

Born In Winter Tab

2,344 views 33 this week
no commentswrite comment
1 2 3 4 5
excellent!
x 3
Autoscroll
+/-
esc
set tempo
stop
Contributor
Difficulty
Tuning
advanced
C G C F A D
WARNING: You are trying to view
                                    content from Ultimate-Guitar.com
                                    in an unauthorized application,
                                    which is prohibited.

                                    Please use an official Ultimate
                                    Guitar Tabs application for iPhone,
                                    iPad or Android to access legitimate
                                    chords, guitar, bass, and drum tabs
                                    from Ultimate-Guitar.com database.

                                    Type "ultimate guitar tabs" in Apple
                                    App Store's or Android Market's
                                    search to find the application.
Band: Gojira
Album: L'enfant Sauvage
Song: Born in Winter

Tabbed by: coVal


Tuning: Drop C  (CGCFAD)

| T tapping
| p pull-off
| / slide up
| . palm muted


Let all tapped notes ring, don't mute them. Chorus and break is played with
heavy distortion, the rest is on clean or with a little overdrive.

-=Intro 0:00=-

  T   T   T   T   T   T   T   T   T   T   T   T
|--------------------------------------------------|
|--------------------------------------------------|
|--------------------------------------------------|
|-7p0-----7p0-----7p3-----7p3-----7p2-----7p2------|
|--------------------------------------------------|
|-----7p0-----7p0-----7p3-----7p3-----7p2-----7p2--|


   T   T   T   T   T   T   T   T    x2  T   T   T   T   T   T   T   T    x2
||----------------------------------|||----------------------------------||
||----------------------------------|||----------------------------------||
||----------------------------------|||----------------------------------||
||-7p5-----7p5-----7p5-----7p5------|||-7p3-----7p3-----7p3-----7p3------||
||----------------------------------|||----------------------------------||
||-----7p5-----7p5-----7p5-----7p5--|||-----7p3-----7p3-----7p3-----7p3--||


  T   T   T   T   T   T   T   T   T   T   T   T      
|--------------------------------------------------|
|--------------------------------------------------|
|--------------------------------------------------|
|-7p0-----7p0-----7p3-----7p3-----7p2-----7p2------|
|--------------------------------------------------|
|-----7p0-----7p0-----7p3-----7p3-----7p2-----7p2--|


  T   T   T   T   T   T   T   T   T   T   T   T
|--------------------------------------------------|
|--------------------------------------------------|
|--------------------------------------------------|
|-7p5-----7p5-----7p5-----7p5-----7p5-----7p5------|
|--------------------------------------------------|
|-----7p5-----7p5-----7p5-----7p5-----7p5-----7p5--|


  T   T   T   T   T   T   T   T
|----------------------------------|
|----------------------------------|
|----------------------------------|
|-7p3-----7p3-----7p3-----7p3------|
|----------------------------------|
|-----7p3-----7p3-----7p3-----7p3--|


   T   T   T   T   T   T   T   T      T   T   T   T   T   T   T   T    x2
||----------------------------------|----------------------------------||
||----------------------------------|----------------------------------||
||----------------------------------|----------------------------------||
||10p3----10p3-----9p3----12p3------|10p3-----9p3----10p3-----7p3------||
||----------------------------------|----------------------------------||
||----10p3----10p3-----9p3----12p3--|----10p3-----9p3----10p3-----7p3--||


-=Verse 0:25=-  Play 2 times

  T   T   T   T   T   T   T   T   T   T   T   T      
|--------------------------------------------------|
|--------------------------------------------------|
|--------------------------------------------------|
|-7p0-----7p0-----7p3-----7p3-----7p2-----7p2------|
|--------------------------------------------------|
|-----7p0-----7p0-----7p3-----7p3-----7p2-----7p2--|


  T   T   T   T   T   T   T   T   T   T   T   T
|--------------------------------------------------|
|--------------------------------------------------|
|--------------------------------------------------|
|-7p5-----7p5-----7p5-----7p5-----7p5-----7p5------|
|--------------------------------------------------|
|-----7p5-----7p5-----7p5-----7p5-----7p5-----7p5--|


  T   T   T   T   T   T   T   T      T   T   T   T   T   T   T   T    
|----------------------------------|----------------------------------|
|----------------------------------|----------------------------------|
|----------------------------------|----------------------------------|
|-7p3-----7p3-----7p3-----7p3------|-7p3-----7p3-----7p3-----7p3------|
|----------------------------------|----------------------------------|
|-----7p3-----7p3-----7p3-----7p3--|-----7p3-----7p3-----7p3-----7p3--|


  T   T   T   T   T   T   T   T   T   T   T   T      
|--------------------------------------------------|
|--------------------------------------------------|
|--------------------------------------------------|
|-7p0-----7p0-----7p3-----7p3-----7p2-----7p2------|
|--------------------------------------------------|
|-----7p0-----7p0-----7p3-----7p3-----7p2-----7p2--|


  T   T   T   T   T   T   T   T   T   T   T   T
|--------------------------------------------------|
|--------------------------------------------------|
|--------------------------------------------------|
|-7p5-----7p5-----7p5-----7p5-----7p5-----7p5------|
|--------------------------------------------------|
|-----7p5-----7p5-----7p5-----7p5-----7p5-----7p5--|


  T   T   T   T   T   T   T   T
|----------------------------------|
|----------------------------------|
|----------------------------------|
|-7p3-----7p3-----7p3-----7p3------|
|----------------------------------|
|-----7p3-----7p3-----7p3-----7p3--|


   T   T   T   T   T   T   T   T      T   T   T   T   T   T   T   T    x2
||----------------------------------|----------------------------------||
||----------------------------------|----------------------------------||
||----------------------------------|----------------------------------||
||10p3----10p3-----9p3----12p3------|10p3-----9p3----10p3-----7p3------||
||----------------------------------|----------------------------------||
||----10p3----10p3-----9p3----12p3--|----10p3-----9p3----10p3-----7p3--||


-=Change 1:14=-

   T   T   T   T   T   T   T   T    x2  T   T   T   T   T   T   T   T    x2
||----------------------------------|||----------------------------------||
||----------------------------------|||----------------------------------||
||----------------------------------|||----------------------------------||
||-9p5-----9p5-----9p5-----9p5------|||10p7----10p7----10p7----10p7------||
||----------------------------------|||----------------------------------||
||-----9p5-----9p5-----9p5-----9p5--|||----10p7----10p7----10p7----10p7--||


   T   T   T   T   T   T   T   T    x2
||----------------------------------||
||----------------------------------||
||----------------------------------||
||-7p3-----7p3-----7p3-----7p3------||
||----------------------------------||
||-----7p3-----7p3-----7p3-----7p3--||


  T   T   T   T   T   T   T   T      T   T   T   T   T   T   T   T    
|----------------------------------|----------------------------------|
|----------------------------------|----------------------------------|
|----------------------------------|----------------------------------|
|-6p2-----6p2-----6p2-----6p2------|-6p2-----6p2-----7p2-----7p2------|
|----------------------------------|----------------------------------|
|-----6p2-----6p2-----6p2-----6p2--|-----6p2-----6p2-----7p2-----7p2--|


-=Pre-Chorus 1:29=-

   T   T   T   T   T   T   T   T      T   T   T   T   T   T   T   T     x4
||----------------------------------|----------------------------------||
||----------------------------------|----------------------------------||
||----------------------------------|----------------------------------||
||-7p0-----7p0-----7p3-----7p3------|-6p2-----6p2-----6p2-----6p2------||
||----------------------------------|----------------------------------||
||-----7p0-----7p0-----7p3-----7p3--|-----6p2-----6p2-----6p2-----6p2--||


   T   T   T   T   T   T   T   T    x3
||----------------------------------||
||----------------------------------||
||----------------------------------||
||-6p2-----6p2-----6p2-----6p2------||
||----------------------------------||
||-----6p2-----6p2-----6p2-----6p2--||


-=Chorus 1:49=-  Play 2 times

  T   T   T   T   T   T   T   T      T   T   T   T   T   T   T   T    
|----------------------------------|----------------------------------|
|----------------------------------|----------------------------------|
|----------------------------------|----------------------------------|
|12p0----12p0----12p0----12p0------|12p0----12p0----12p0----12p0------|
|----------------------------------|----------------------------------|
|----12p0----12p0----12p0----12p0--|----12p0----12p0----12p0----12p0--|


  T   T   T   T   T   T   T   T      T   T   T   T   T   T   T   T    
|----------------------------------|----------------------------------|
|----------------------------------|----------------------------------|
|----------------------------------|----------------------------------|
|17p1----17p1----17p1----17p1----/-|17p10---17p10---17p10---17p8------|
|----------------------------------|----------------------------------|
|----17p1----17p1----17p1----17p1/-|----17p10---17p10---17p8----17p8--|


  T   T   T   T   T   T   T   T      T   T   T   T   T   T   T   T    
|----------------------------------|----------------------------------|
|----------------------------------|----------------------------------|
|----------------------------------|----------------------------------|
|12p0----12p0----12p0----12p0------|12p0----12p0----12p0----12p0------|
|----------------------------------|----------------------------------|
|----12p0----12p0----12p0----12p0--|----12p0----12p0----12p0----12p0--|


  T   T   T   T   T   T   T   T      T   T   T   T   T   T   T   T    
|----------------------------------|----------------------------------|
|----------------------------------|----------------------------------|
|----------------------------------|----------------------------------|
|17p1----17p1----17p1----17p1----/-|17p13---17p13---17p13---17p7------|
|----------------------------------|----------------------------------|
|----17p1----17p1----17p1----17p1/-|----17p13---17p13---17p7----17p7--|


-=Break 2:19=-

                                    
||----------------------------------|
||----------------------------------|
||-------------------7--------------|
||----------------------------------|
||-------------------5--------------|
||-0-0-0-0-0-0-0-0-0----------------|
  . . . . . . . . .                 

  --3-- --3-- --3-- --3-- --3-- --3-- --3-- --3--  x3
|-------------------------------------------------||
|-------------------------------------------------||
|-------------------------------------------------||
|-------------------------------------------------||
|-------------------------------------------------||
|-x-x-x-x-x-x-x-x-x-x-x-x-x-x-x-x-x-x-x-x-x-x-x-x-||
 natural harmonics from 1st to 5th fret


|--------------------------|----------------------------------|
|--------------------------|----------------------------------|
|-------------------7------|-------------------7--------------|
|--------------------------|----------------------------------|
|-------------------5------|-------------------5--------------|
|-0-0-0-0-0-0-0-0-0--------|-0-0-0-0-0-0-0-0-0----------------|
  . . . . . . . . .          . . . . . . . . .

  --3-- --3-- --3-- --3-- --3-- --3-- --3-- --3-- 
|-------------------------------------------------|
|-------------------------------------------------|
|-------------------------------------------------|
|-------------------------------------------------|
|-------------------------------------------------|
|-x-x-x-x-x-x-x-x-x-x-x-x-x-x-x-x-x-x-x-x-x-x-x-x-|
 natural harmonics from 1st to 5th fret


-=Chorus 2:36=-

Play chorus 2 times


-=Outro 3:06=-

Play verse 1 time then...


   T   T   T   T   T   T   T   T    Play till the end
||----------------------------------||
||----------------------------------||
||----------------------------------||
||-6p2-----6p2-----6p2-----6p2------||
||----------------------------------||
||-----6p2-----6p2-----6p2-----6p2--||


Good luck and have fun! :)
comments
We did not receive enough feedback on this tab! Please rate:
1 2 3 4 5
I want to post or [tab]
guest
You may want to rate the tab now too:
select rating
Please do not post tabs as comments. Select "correction" instead!