Oops, an error
Loading. Please wait.

Clone Tab

12,580 views 60 this week
1 commentread comment
1 2 3 4 5
excellent!
x 5
Autoscroll
+/-
esc
set tempo
stop
Contributor
Difficulty
Tuning
advanced
D G C F A D
WARNING: You are trying to view
                                    content from Ultimate-Guitar.com
                                    in an unauthorized application,
                                    which is prohibited.

                                    Please use an official Ultimate
                                    Guitar Tabs application for iPhone,
                                    iPad or Android to access legitimate
                                    chords, guitar, bass, and drum tabs
                                    from Ultimate-Guitar.com database.

                                    Type "ultimate guitar tabs" in Apple
                                    App Store's or Android Market's
                                    search to find the application.
#----------------------------------PLEASE NOTE-----------------------------#
#This file is the author's own work and represents their interpretation of the#
#song. You may only use this file for private study, scholarship, or research.#
#--------------------------------------------------------------------------#
#-- File created with Instab -http://www.pconline.com/~smcarey/instab.html #
#--------------------------------------------------------------------------#

Author/Artist: Gojira
Title: Clone
Album: Terra Incognita
Transcribed by: Jaymz88
DGCFAD


---------------------------------------------------------------------------|
---------------------------------------------------------------------------|
---------------------------------------------------------------------------|
----------------------------------10p7-9p7-8p7-10p7-9p7-8p7-10p7-8p7-10p7--|
---------------------------------------------------------------------------|
--8-7-6-8-7-6-8-6-8-7-6-8-7-6-8--------------------------------------------|
 PM - - - - - - - - - - - - - -    (Without the pick)

---------------------------------------------------------------------------|
---------------------------------------------------------------------------|
---------------------------------------------------------------------------|
-9p7-8p7-10p7-9p7-8p7-10p7-------------------------------------------------|
---------------------------------------------------------------------------|
---------------------------------------------------------------------------|


---------------------------------------------------------------------------|
---------------------------------------------------------------------------|
---------------------------------------------------------------------------|
----------------------------------9p6-8p6-7p6-9p6-8p6-7p6-9p6-7p6-9p6-8p6--|
---------------------------------------------------------------------------|
--8-7-6-8-7-6-8-6-8-7-6-8-7-6-8--------------------------------------------|
  - - - - - - - - - - - - - - -

---------------------------------------------------------------------------|
---------------------------------------------------------------------------|
---------------------------------------------------------------------------|
-7p6-9p6-8p6-7p6-9p6------------------------------------9p6-8p6-7p6-9p6-8p6|
---------------------------------------------------------------------------|
-------------------------8-7-6-8-7-6-8-6-8-7-6-8-7-6-8---------------------|
                         - - - - - - - - - - - - - - -

---------------------------------------------------------------------------|
---------------------------------------------------------------------------|
---------------------------------------------------------------------------|
-7p6-9p6-7p6-10p7-9p7-8p7-10p7-9p7-8p7-10p7--------------------------------|
---------------------------------------------------------------------------|
----------------------------------------------8-7-6-8-7-6-8-6-8-7-6-8-7-6-8|
                                              - - - - - - - - - - - - - - -

---------------------|-----------------------------------------------------|
---------------------|-----------------------------------------------------|
---------------------|-----------------------------------------------------|
-6-------6--7--2-----|-----------------------------------------------------|
-6-------6--7--2-----|-----------------------------------------------------|
-4-------4--5--0-----|---1-1-1-1-1-1-1-1-1-1-1-1-1-1-1-1--3-2-1-3-2-1-3-0--|
                         - - - - - - - - - - - - - - - -  - - - - - - - -

--------------------------------------------------------|------------------|
--------------------------------------------------------|------------------|
----------------------------------------------------x2--|------------------|
--------------------------------------------------------|------------------|
--------------------------------------------------------|------------------|
-1-1-1-1-1-1-1-1-1-1-1-1-1-1-1-1--3-2-1-3-2-1-3-0-------|------------------|
 - - - - - - - - - - - - - - - -  - - - - - - - -

-------------------------------------|-------------------------------------|
-------------------------------------|-------------------------------------|
-------------------------------------|-------------------------------------|
-3----4----2----------3----4----2----|-----3----4----2---------------------|
-3----4----2----------3----4----2----|-----3----4----2---2-2-2-2-2--2--2-2-|
-1----2----0----------1----2----0----|-----1----2----0---0-0-0-0-0--0--0-0-|
                                                          - - - - -  -  - - -

-----------------------------|---------------------------------------------|
-----------------------------|----------------------------------------------
------------------------x3---|---------------------------------------------|
-----------------------------|---------------------------------------------|
-2-2--2--2-2-2-2-2--2--------|---------------------------------------------|
-0-0--0--0-0-0-0-0--0--------|--1-1-1-1-1-1-1-1-1-1-1-1-1-1-1-1--3-2-1-3-2-1
 - -  -  - - - - -  -           - - - - - - - - - - - - - - - -  - - - - - -

---------------------------------------------------|-----------------------|
---------------------------------------------------|-----------------------|
---------------------------------------------------|------------------------
---------------------------------------------------|-----------------------|
---------------------------------------3-2-1-2-3---|-----------------------|
-3-0--1-1-1-1-1-1-1-1-1-1-1-1-1-1-1-1--3-2-1-2-3---|-----------------------|
 - -  - - - - - - - - - - - - - - - -  - - - - -

---------------------------------------------------------------------------|
---------------------------------------------------------------------------|
---------------------------------------------------------------------------|
---------------------------------------------------------------------------|
--5-5-5-5-4--------------5-5-5-5-4----------------x4-----------------------|
-------------0-0-0--3b--------------0-0-0--3b------------------------------|
             - - -  A.H             - - - A.H

---------------------------------------------------------------------------|
---------------------------------------------------------------------------|
--7-7-7-7-6-------------------------------------7-7-7-7-6------------------|
--x-x-x-x-x--------------3-3-3-3-2--------------x-x-x-x-x-------------3-3-3|
--5-5-5-5-4--------------1-1-1-1-2--------------5-5-5-5-4-------------1-1-1|
-------------0-0-0--3b---1-1-1-1-0---0-0-0--3b-------------0-0-0--3b--1-1-1|
             - - -  A.H                    A.H             - - -  A.H

---------------------------------------------------------------------------|
---------------------------------------------------------------------------|
---------------------------------------------------------------------------|
-3-2--------3--------------------------------------------------------------|
-1-2--------3--------------------------------------------------------------|
-1-0--0--0--1--------------------------------------------------------------|
      -  -

Guitar I (clean)
------3--------3---------3----------3----------3----------3---------3------|
----2---2----2----2----2----2-----2----2-----2----2-----2---2----2---2-----|
--5-------5----------5---------5----------5----------5---------5--------5--|
---------------------------------------------------------------------------|
---------------------------------------------------------------------------|
---------------------------------------------------------------------------|

Guitar II
---------------------------------------------------------------------------|
---------------------------------------------------------------------------|
---------------------------------------------------------------------------|
-3----------------------------------------5-----------------------------3--|
-3----------------------------------------3-----------------------------3--|
-1----------------------------------------3-----------------------------1--|


---------------------------------------------------------------------------|
---------------------------------------------------------------------------|
---------------------------------------------------------------------------|
---------5---------5-----6-----5-------5---------5-----6-------------------|
---------3---------3-----4-----3-------5---------5-----6-------------------|
-0-0--0--3--0-0-0--3--0--4--0--3--0-0--3--0-0-0--3--0--4--0--0--3b---------|
 - -  -     - - -     -     -     - -     - - -     -     -  - A.H

---------------------------------------------------------------------------|
---------------------------------------------------------------------------|
---------------------------------------------------------------------------|
---------5---------5-----6-----5-------5---------5------------4------------|
---------3---------3-----4-----3-------3---------3------------4------------|
-0-0--0--3--0-0-0--3--0--4--0--3--0-0--3--0-0-0--3--0--3b--0--2------------|
 - -  -     - - -     -     -     - -     - - -     - A.H  -

--------------------------------------|------------------------------------|
--------------------------------------|-------------------------------------
--------------------------------------|------------------------------------|
--3----4----2----------3----4----2----|-----3----4----2--------------------|
--3----4----2----------3----4----2----|-----3----4----2---2-2-2-2-2--2--2-2|
--1----2----0----------1----2----0----|-----1----2----0---0-0-0-0-0--0--0-0|
                                                          - - - - -  -  - - -

-----------------------------|---------------------------------------------|
-----------------------------|---------------------------------------------|
-----------------------------|---------------------------------------------|
-----------------------------|---------------------------------------------|
-2-2--2--2-2-2-2-2--2--------|---------------------------------------------|
-0-0--0--0-0-0-0-0--0--------|---------------------------------------------|
 - -  -  - - - - -  -
comments
print report bad tab
1 comment total.
0 reply
Jimmy-G wrote on February 9 2009, 06:55 pm

Cheers for a great tab
5 Stars

I want to post or [tab]
guest
You may want to rate the tab now too:
select rating
Please do not post tabs as comments. Select "correction" instead!