Oops, an error
Loading. Please wait.

Death Of Me Tab

ver1
ver1

Whole song

Interactive

More versions @911Tabs.com
2,473 views 6 this week
1 commentread comment
1 2 3 4 5
worth learning
x 1
Autoscroll
+/-
esc
set tempo
stop
Contributor
Difficulty
intermediate
Hey! There's an official Ultimate Guitar app which is ideal
for learning songs when you're away from computer. Get the app
WARNING: You are trying to view
                                    content from Ultimate-Guitar.com
                                    in an unauthorized application,
                                    which is prohibited.

                                    Please use an official Ultimate
                                    Guitar Tabs application for iPhone,
                                    iPad or Android to access legitimate
                                    chords, guitar, bass, and drum tabs
                                    from Ultimate-Guitar.com database.

                                    Type "ultimate guitar tabs" in Apple
                                    App Store's or Android Market's
                                    search to find the application.
#---------------------------------PLEASE NOTE------------------------------#
#This file is the author's own work and represents their interpretation of the#
#song. You may only use this file for private study, scholarship, or research.#
#--------------------------------------------------------------------------#
#- File created with Instab - http://www.pconline.com/~smcarey/instab.html #
#--------------------------------------------------------------------------#

Author/Artist: Gojira
Title: Death Of Me
Album: The Link
Transcribed by: Jaymz88
DGCFAD


---------------------------------------------------------------------------|
---------------------------------------------------------------------------|
---------------------------------------------------------------------------|
---------8-----7-----6-----5-----4-----------------------------------------|
---------6-----5-----4-----3-----2-----------------------------------------|
-0-0-0-0-6--0--5--0--4--0--3--0--2-0-0-------------------------------------|
 PM- - -    -     -     -     -    - -

---------------------------------------------------------------------------|
---------------------------------------------------------------------------|
--------3-3---------------------3-3---------------------3-3----------------|
--0-0---3-3---0-0---3-3---0-0---3-3---0-0---3-3---0-0---3-3------------5---|
--0-0---1-1---0-0---1-1---0-0---1-1---0-0---1-1---0-0---1-1---3-2-1-0--3--2|
--0-0---------0-0---0-0---0-0---------0-0---0-0---0-0---------3-2-1-0--3--2|
 PM -   - -   - -   - -   - -   - -   - -   - -   - -   - -   - - - -     -

--------|------------------------------------------------------------------|
--------|------------------------------------------------------------------|
--------|------------3-3---------------------3-3---------------------3-3---|
--4-----|------0-0---3-3---0-0---3-3---0-0---3-3---0-0---3-3---0-0---3-3---|
1-2-----|------0-0---1-1---0-0---1-1---0-0---1-1---0-0---1-1---0-0---1-1---|
1-2-----|------0-0---------0-0---0-0---0-0---------0-0---0-0---0-0---------|
 -            PM---   - -   - -   - -   - -   - -   - -   - -   - -   - -

-------------------------------------|-------------------------------------|
-------------------------------------|-------------------------------------|
-------------------------------------|-------------------------------------|
---------5-------4-------5-------4---|-------------/6/---------------------|
3-2-1-0--3--2-1--2--3-2--3--2-1--2---|-------------/4/---------3-----------|
3-2-1-0--3--2-1--2--3-2--3--2-1--2---|--1-1-2-3-1--/4/--1-2-3--3--1-1-2-3-1|
 - - - -     - -     - -     - -         - - - - -       - - -     - - - - -

---------------------------------------------------------------------------|
---------------------------------------------------------------------------|
---------------------------------------------------------------------------|
/6/-----------------------/6/-------------------------------------------/6/-
/4/---------3-------------/4/---------3---------------------------------/4/-
/4/--1-2-3--3--1-1-2-3-1--/4/--1-2-3--3--1-1-1-2-2-2-3-3-3-2-2-2-1-1-1--/4/-
      - - -     - - - - -       - - -     - - - - - - - - - - - - - - -

---------------------------------------------------------------------------|
---------------------------------------------------------------------------|
----------------------------------------------------------------------------
---------------------/6/-----------------------/6/-------------------------|
-------3-------------/4/---------3-------------/4/---------3---------------|
1-2-3--3--1-1-2-3-1--/4/--1-2-3--3--1-1-2-3-1--/4/--1-2-3--3--1-1-1-2-2-2-3|
 - - -     - - - - -       - - -     - - - - -       - - -     - - - - - - -

---------------------------------------------------------------------------|
---------------------------------------------------------------------------|
---------------------------------------------------------------------------|
-----------------/6/-----------------------/6/-----------------------/6/---|
-----------------/4/---------3-------------/4/---------3-------------/4/---|
3-3-2-2-2-1-1-1--/4/--1-2-3--3--1-1-2-3-1--/4/--1-2-3--3--1-1-2-3-1--/4/--1|
 - - - - - - - -       - - -     - - - - -       - - -     - - - - -       -

---------------------------------------------------------------------------|
---------------------------------------------------------------------------|
---------------------------------------------------------------------------|
----------6--9--8----6--9--8---------------------------------/6/-----------|
------3---x--x--x----x--x--x---------------------------------/4/---------3-|
-2-3--3---4--7--6----4--7--6--1-1-1-2-2-2-3-3-3-2-2-2-1-1-1--/4/--1-2-3--3-|
 - -                          - - - - - - - - - - - - - - -       - - -

---------------------------------------------------------------------------|
---------------------------------------------------------------------------|
---------------------------------------------------------------------------|
------------/6/-----------------------/6/-------------6--9--8----6--9--8--9|
------------/4/---------3-------------/4/---------3---x--x--x----x--x--x--x|
-1-1-2-3-1--/4/--1-2-3--3--1-1-2-3-1--/4/--1-2-3--3---4--7--6----4--7--6--7|
 - - - - -       - - -     - - - - -       - - -

---------------------------------------------------------------------------|
---------------------------------------------------------------------------|
---------------------------------------------------------------------------|
-12-12---13-10--13---3-----------------------------------------------------|
--x--x----x--x---x---1-----------------------------------------------------|
-10-10---11-12--11---0-----------------------------------------------------|


---------------------------------------------------------------------------|
---------------------------------------------------------------------------|
---------------------------------------------------------------------------|
--------------------------------------------------------21-21----------x4--|
--17-17---17-17-17-17-17-17-17-17--17-17---17-17--20-20--------------------|
---------------------------------------------------------------------------|


---------------------------------------------------------------------------|
---------------------------------------------------------------------------|
---------------------------------------------------------------------------|
-----------------------------------------------------------------------x4--|
----------------1-1-1-1-1----------1-1----------2-2-2-2-2-2--1-1-1-1-------|
--0-0-0-0--4-4-------------0-0-4-4------0-0-4-4----------------------------|


---------------------------------------------------------------------------|
---------------------------------------------------------------------------|
---------------------------------------------------------------------------|
---------------------------------------------------------21--21--------x4--|
--17-17---17-17-17-17-17-17-17-17--17-17---17-17--20-20--------------------|
---------------------------------------------------------------------------|

---------------------------------------------------------------------------|
---------------------------------------------------------------------------|
---------------------------------------------------------------------------|
-----------------------------------------------------------------------x4--|
----------------1-1-1-1-1----------1-1----------2-2-2-2-2-2--1-1-1-1-------|
--0-0-0-0--4-4-------------0-0-4-4------0-0-4-4----------------------------|

---------------------------------------------------------------------------|
---------------------------------------------------------------------------|
--------------------------------------3-3---------------------3-3----------|
--3----3---3-----3-----3--------0-0---3-3---0-0---3-3---0-0---3-3----------|
--1----1---1-----1-----1--0-0---0-0---1-1---0-0---1-1---0-0---1-1--3-2-1-0-|
--0----0---0--0--0--0--0--0-0---0-0---------0-0---0-0---0-0--------3-2-1-0-|
              -     -     - -   - -   - -   - -   - -   - -   - -  - - - -

------------|--------------------------------------------------------------|
------------|--------------------------------------------------------------|
------------|--------3-3---------------------3-3---------------------3-3---|
-5-------4--|--0-0---3-3---0-0---3-3---0-0---3-3---0-0---3-3---0-0---3-3---|
-3--2-1--2--|--0-0---1-1---0-0---1-1---0-0---1-1---0-0---1-1---0-0---1-1--3|
-3--2-1--2--|--0-0---------0-0---0-0---0-0---------0-0---0-0---0-0--------3|
    - -        - -   - -   - -   - -   - -   - -   - -   - -   - -   - -  -

-------------------|-------------------------------------------------------|
-------------------|-------------------------------------------------------|
-------------------|-------------------------------------------------------|
--------5-------4--|-------------/6/-----------------------/6/-------------|
-2-1-0--3--2-1--2--|-------------/4/---------3-------------/4/---------3---|
-2-1-0--3--2-1--2--|--1-1-2-3-1--/4/--1-2-3--3--1-1-2-3-1--/4/--1-2-3--3--1|
 - - -     - -        - - - - -       - - -     - - - - -       - - -     -

---------------------------------------------------------------------------|
---------------------------------------------------------------------------|
---------------------------------------------------------------------------|
---------/6/-------------------------------------------/6/-----------------|
---------/4/---------3---------------------------------/4/---------3-------|
1-2-3-1--/4/--1-2-3--3--1-1-1-2-2-2-3-3-3-2-2-2-1-1-1--/4/--1-2-3--3--1-1-2|
 - - - -       - - -     - - - - - - - - - - - - - - -       - - -     - - -

---------------------------------------------------------------------------|
---------------------------------------------------------------------------|
---------------------------------------------------------------------------|
-----/6/-----------------------/6/-----------------------------------------|
-----/4/---------3-------------/4/---------3-------------------------------|
3-1--/4/--1-2-3--3--1-1-2-3-1--/4/--1-2-3--3--1-1-1-2-2-2-3-3-3-2-2-2-1-1-1|
 - -       - - -     - - - - -       - - -     - - - - - - - - - - - - - - -

---------------------------------------------------------------------------|
---------------------------------------------------------------------------|
---------------------------------------------------------------------------|
-/6/-----------------------/6/-----------------------/6/-------------6--9-8|
-/4/---------3-------------/4/---------3-------------/4/---------3---x--x-x|
-/4/--1-2-3--3--1-1-2-3-1--/4/--1-2-3--3--1-1-2-3-1--/4/--1-2-3--3---4--7-6|
      - - -     - - - - -       - - -     - - - - -       - - -

---------------------------------------------------------------------------|
---------------------------------------------------------------------------|
---------------------------------------------------------------------------|
-6--7--8---------------------------------3---------------------------------|
-x--x--x---------------------------------1---------------------------------|
-4--7--6--1-1-1-2-2-2-3-3-3-2-2-2-1-1-1--0---------------------------------|
          - - - - - - - - - - - - - - -

------------------------|--------------------------------------------------|
------------------------|--------------------------------------------------|
------------------------|--------------------------------------------------|
-3--------3--------3----|--------------------------------------------------|
-1--------1--------1----|---2-2-----2-2-----2-2-----2-2----1-1-----1-1----1|
-0--------0--------0----|-------4-4-----0-0-----4-4------------4-4-----0-0-|
                          PM- - - - - - - - - - - - - -    - - - - - - - - -

------------|--------------------------------------------------------------|
------------|--------------------------------------------------------------|
------------|-------7-7-7-7-7-7-7-7-7-7------------------------------------|
------------|------------------------------------------2--------------------
-1-----1-1--|--0-0------------------------2-2-----2-2--2----------1-1------|
---4-4------|--0-0----------------------------4-4------0---------------4-4-|
 - - - - -   PM- -  harm- - - - - - - -   - -  - -- -             - -  - -

---------------------------------------------------------------------------|
---------------------------------------------------------------------------|
---------------------------------------------------------------------------|
-3-------------------2----------------3--------3------3-----3--------------|
-1------2-2-----2-2--2-------1-1------1--------1------1-----1------1-1--2-2|
-0----------4-4------0-----------4-4--0--------0------0-----0------1-1--2-2|
        - - - - - -          - - - -                             PM- -  - -

---------------------------------------------------------------------------|
---------------------------------------------------------------------------|
---------------------------------------------------------------------------|
---------------------------------------------------------------------------|
-3-3--2-2--1-1-2-2----------------------------------------------------------
-3-3--2-2--1-1-2-2---------------------------------------------------------|
 - -  - -  - - - -
comments
We did not receive enough feedback on this tab! Please rate:
print report bad tab
1 2 3 4 5
1 comment total.
0 reply
emil_sej wrote on May 4 2009, 10:32 am

You've got the main idea of the song, but most of it is a bit uncorrect.

I want to post or [tab]
guest
You may want to rate the tab now too:
select rating
Please do not post tabs as comments. Select "correction" instead!