Oops, an error
Loading. Please wait.

Explosia Lenfant Sauvage Tab

7,263 views 21 this week
2 commentsread comments
1 2 3 4 5
worth learning
x 8
Autoscroll
+/-
esc
set tempo
stop
Difficulty
Tuning
intermediate
C G C F A D
WARNING: You are trying to view
                                    content from Ultimate-Guitar.com
                                    in an unauthorized application,
                                    which is prohibited.

                                    Please use an official Ultimate
                                    Guitar Tabs application for iPhone,
                                    iPad or Android to access legitimate
                                    chords, guitar, bass, and drum tabs
                                    from Ultimate-Guitar.com database.

                                    Type "ultimate guitar tabs" in Apple
                                    App Store's or Android Market's
                                    search to find the application.
Guitar 1

D|------------------------------------------------------------------|
A|------------------------------------------------------------------|
F|------------------------------------------------------------------|
C|-----------------------------4-----5--------4/5\4-----------------|3x
G|-----------------------------2-----3--------2/3\2-----------------|
C|--3--1--0----0------------------0-----0---------------------------|
    pm pm pm   pm                 pm    pm

Guitar 2
                          (Pick scrape downwards!)
D|----------------------------------0-------------------------------|
A|----------------------------------0-------------------------------|
F|----------------------------------0-------------------------------|
C|----------------------------------0-------------------------------|3x
G|----------------------------------0-------------------------------|
C|--3--1--0----0--------------------0-------------------------------|
    pm pm pm   pm          

Guitar 1

D|------------------------------------------------------------------|
A|------------------------------------------------------------------|
F|------------------------------------------------------------------|
C|------------------------------------------------------------------|1x
G|---5--5----5--5----5--5-------------------------------------------|
C|---3--3----3--3----3--3-------------------------------------------|

Guitar 2

D|------------------------------------------------------------------|
A|------------------------------------------------------------------|
F|------------------------------------------------------------------|
C|------------------------------------------------------------------|1x
G|---5--5----5--5----5--5-------------------------------------------|
C|---3--3----3--3----3--3-------------------------------------------|


                        [Repeat intro Section again, then:]


Guitar 2

D|--10---[Let ring, release from mute]------------------------------|
A|------------------------------------------------------------------|
F|------------------------------------------------------------------|
C|------------------------------------------------------------------|1x
G|------------------------------------------------------------------|
C|------------------------------------------------------------------|
    pm

Guitar 1

D|------------------------------------------------------------------|
A|------------------------------------------------------------------|
F|------------------------------------------------------------------|
C|------------------------------------------------------------------|1x
G|------------------------------------------------------------------|
C|--2-2-2-2-2-2-2-2--2--2-------2-2-2-2-2-2-2-2--2--2---------------|
                              All pm


D|------------------------------------------------------------------|
A|------------------------------------------------------------------|
F|------------------------------------------------------------------|
C|------------------------------------------------------------------|1x
G|------------------------------------------------------------------|
C|--2-2-2-2-2-2-2-2--2--2----2-2-2-2-2-2-2-2-2-2-2-2-2-2-2-2-2-2-2-2|
                              All pm


D|------------------------------------------------------------------|
A|------------------------------------------------------------------|
F|------------------------------------------------------------------|
C|------------------------------------------------------------------|1x
G|------------------------------------------------------------------|
C|--2-2-2-2-2-2-2-2--2--2----2-2-2-2-2-2-2-2--2--2------------------|
                              All pm


D|------------------------------------------------------------------|
A|------------------------------------------------------------------|
F|------------------------------------------------------------------|
C|------------------------------------------------------------------|1x
G|------------------------------------------------------------------|
C|--2-2-2-2-2-2-2-2--2--2----2-2-2-2-2-2-2-2-2-2-2-2-2-2-2-2-2-2-2-2|
                              All pm


D|------------------------------------------------------------------|
A|------------------------------------------------------------------|
F|---------------------------7///----7///---------------------------|
C|--------------------7//////----7///-------------------------------|8x
G|------------------------------------------------------------------|
C|--2-2-2-2-2-2-2---------------------------------------------------|
    [    pm     ]     [finger mute, gently rest finger on string] 



Guitar 1

D|------------------------------------------------------------------|
A|------------------------------------------------------------------|
F|------------------------------------------------------------------|
C|-----------------------------4-----5--------4/5\4-----------------|4x
G|-----------------------------2-----3--------2/3\2-----------------|
C|--3--1--0----0------------------0-----0---------------------------|
    pm pm pm   pm                 pm    pm

Guitar 2
                          (Pick scrape downwards!)
D|----------------------------------0-------------------------------|
A|----------------------------------0-------------------------------|
F|----------------------------------0-------------------------------|
C|----------------------------------0-------------------------------|4x
G|----------------------------------0-------------------------------|
C|--3--1--0----0--------------------0-------------------------------|
    pm pm pm   pm          

Guitar 1

D|------------------------------------------------------------------|
A|------------------------------------------------------------------|
F|------------------------------------------------------------------|
C|------------------------------------------------------------------|1x
G|---5--5----5--5----5--5-------------------------------------------|
C|---3--3----3--3----3--3-------------------------------------------|

Guitar 2

D|------------------------------------------------------------------|
A|------------------------------------------------------------------|
F|------------------------------------------------------------------|
C|------------------------------------------------------------------|1x
G|---5--5----5--5----5--5-------------------------------------------|
C|---3--3----3--3----3--3-------------------------------------------|


                           [Repeat again then:]


D|------------------------------------------------------------------|
A|------------------------------------------------------------------|
F|---------------------------7///----7///---------------------------|
C|--------------------7//////----7///-------------------------------|8x
G|------------------------------------------------------------------|
C|--2-2-2-2-2-2-2---------------------------------------------------|
    [    pm     ]     [finger mute, gently rest finger on string] 


D|------------------------------------------------------------------|
A|------------------------------------------------------------------|
F|------------------------------------------------------------------|
C|------------------------------------------------------------------|1x
G|------------------------------------------------------------------|
C|--2-2-2-2-2-2-2-2--2--2----2-2-2-2-2-2-2-2--2--2------------------|
                              All pm


D|------------------------------------------------------------------|
A|------------------------------------------------------------------|
F|------------------------------------------------------------------|
C|------------------------------------------------------------------|1x
G|------------------------------------------------------------------|
C|--2-2-2-2-2-2-2-2--2--2----2-2-2-2-2-2-2-2-2-2-2-2-2-2-2-2-2-2-2-2|
                              All pm


D|------------------------------------------------------------------|
A|------------------------------------------------------------------|
F|------------------------------------------------------------------|
C|------------------------------------------------------------------|1x
G|------------------------------------------------------------------|
C|--2-2-2-2-2-2-2-2--2--2----2-2-2-2-2-2-2-2--2--2------------------|
                              All pm


D|------------------------------------------------------------------|
A|------------------------------------------------------------------|
F|------------------------------------------------------------------|
C|------------------------------------------------------------------|1x
G|------------------------------------------------------------------|
C|--2-2-2-2-2-2-2-2--2--2----2-2-2-2-2-2-2-2-2-2-2-2-2-2-2-2-2-2-2-2|
                              All pm




Guitar 1
D|------------------------------------------------------------------|
A|------------------------------------------------------------------|
F|------------------------------------------------------------------|
C|------------------------------------------------------------------|1x
G|------------------------------------------------------------------|
C|--5----8--------5--8--5----3----7---------------------------------|


Guitar 2
D|------------------------------------------------------------------|
A|------------------------------------------------------------------|
F|------------------------------------------------------------------|
C|-5////////////////////////////////////////////////////////////////|1x
G|------------------------------------------------------------------|
C|------------------------------------------------------------------|


Guitar 1
D|------------------------------------------------------------------|
A|------------------------------------------------------------------|
F|------------------------------------------------------------------|
C|------------------------------------------------------------------|1x
G|------------------------------------------------------------------|
C|--5----8--------5--8--5----3----7---------------------------------|


Guitar 2
D|------------------------------------------------------------------|
A|------------------------------------------------------------------|
F|------------------------------------------------------------------|
C|-5////////////////////////////////////////////////////////////////|1x
G|------------------------------------------------------------------|
C|------------------------------------------------------------------|


Guitar 1
D|------------------------------------------------------------------|
A|------------------------------------------------------------------|
F|------------------------------------------------------------------|
C|------------------------------------------------------------------|1x
G|-3----6---------3--6--3----1----5---------------------------------|
C|------------------------------------------------------------------|


Guitar 2
D|------------------------------------------------------------------|
A|------------------------------------------------------------------|
F|------------------------------------------------------------------|
C|-5////////////////////////////////////////////////////////////////|1x
G|------------------------------------------------------------------|
C|------------------------------------------------------------------|



Guitar 1
D|------------------------------------------------------------------|
A|------------------------------------------------------------------|
F|------------------------------------------------------------------|
C|------------------------------------------------------------------|4x
G|------------------------------------------------------------------|
C|--5----8--------------5----3----7---------------------------------|


Guitar 2
D|------------------------------------------------------------------|
A|------------------------------------------------------------------|
F|------------------------------------------------------------------|
C|-5////////////////////////////////////////////////////////////////|4x
G|------------------------------------------------------------------|
C|------------------------------------------------------------------|



Guitar 1
D|------------------------------------------------------------------|
A|------------------------------------------------------------------|
F|------------------------------------------------------------------|
C|------------------------------------------------------------------|1x
G|------------------------------------------------------------------|
C|--5----8--------5/8----3----7-------------------------------------|


Guitar 2
D|------------------------------------------------------------------|
A|------------------------------------------------------------------|
F|------------------------------------------------------------------|
C|-5////////////////////////////////////////////////////////////////|1x
G|------------------------------------------------------------------|
C|------------------------------------------------------------------|


Guitar 1
D|------------------------------------------------------------------|
A|------------------------------------------------------------------|
F|------------------------------------------------------------------|
C|------------------------------------------------------------------|1x
G|------------------------------------------------------------------|
C|--5----8--------5/8----3----7-------------------------------------|


Guitar 2
D|------------------------------------------------------------------|
A|------------------------------------------------------------------|
F|------------------------------------------------------------------|
C|--5//////////////////////////////////////////////////////////////-|4x
G|------------------------------------------------------------------|
C|------------------------------------------------------------------|

               [Repeat the last 5 bars including the 4x bars, then:]


Guitar 1
D|------------------------------------------------------------------|
A|------------------------------------------------------------------|
F|------------------------------------------------------------------|
C|------------------------------------------------------------------|1x
G|--------------5---------------------------------------------------|
C|--5-----8---------------------------------------------------------|



Guitar 2
D|------------------------------------------------------------------|
A|------------------------------------------------------------------|
F|------------------------------------------------------------------|
C|------------------------------------------------------------------| outro
G|------------------------------------------------------------------|
C|--2--2--2--2--2--2--2--2----2-----2-------------------------------|
                       

Guitar 1
D|------------------------------------------------------------------|
A|------------------------------------------------------------------|
F|------------------------------------------------------------------|
C|------------------------------------------------------------------| outro
G|---------------5------------------------3------5------------------|
C|--5-----8---------------------------------------------------------|


Guitar 1
D|------------------------------------------------------------------|
A|------------------------------------------------------------------|
F|------------------------------------------------------------------|
C|------------------------------------------------------------------| outro
G|---------------5--------------------------------------------------|
C|--5-----8-------------------------------7~------------------------|




/ = Slide Up
\ = Slide Down
/// = Tremelo Pick
pm = Palm Mute
~ = Vibrato


This is the first track Explosia from Gojira's soon to be released L'enfant Sauvage. 
And my first tab by ear, it's probably not 100% accurate, but most of it sounds 
just as it does in the song, so hope you like it!
And I hope you pre-ordered this amazing album too.

ALL RIGHTS RESERVED TO THE MEMBERS OF GOJIRA AND ROADRUNNER RECORDS 2012
comments
print report bad tab
2 comments total.
+2 reply
Archetype4 wrote on June 25 2012, 12:40 pm

close, but not quite, It's not in drop C, it's in Standard D.
and this is the correct intro


D|------------------------------------------------------------------|
A|------------------------------------------------------------------|
F|------------------------------------------------------------------|
C|-----------------------------4---4--------4/5\4-------------------|3x
G|--3--2--0----0---------------2---2--------2/3\2-------------------|
D|--3--2--1----0---------------2---2--------2-3-2-------------------|
pm. . . .

+3 reply
jaymz88 wrote on June 26 2012, 01:56 pm

No offense but there is a lot of mistakes...

I want to post or [tab]
guest
You may want to rate the tab now too:
select rating
Please do not post tabs as comments. Select "correction" instead!