Oops, an error
Loading. Please wait.

Explosia Tab

ver2
ver2

Whole song

Interactive

More versions @911Tabs.com
4,619 views 45 this week
no commentswrite comment
1 2 3 4 5
poor
x 1
add to favorites launch autoscroll
font size
0
reset
Autoscroll
+/-
esc
set tempo
stop
Contributor
Difficulty
Tuning
intermediate
D G C F A D
WARNING: You are trying to view
                                    content from Ultimate-Guitar.com
                                    in an unauthorized application,
                                    which is prohibited.

                                    Please use an official Ultimate
                                    Guitar Tabs application for iPhone,
                                    iPad or Android to access legitimate
                                    chords, guitar, bass, and drum tabs
                                    from Ultimate-Guitar.com database.

                                    Type "ultimate guitar tabs" in Apple
                                    App Store's or Android Market's
                                    search to find the application.
#----------------------------------PLEASE NOTE--------------------------------#
#This file is the author's own work and represents their interpretation of the#
#song. You may only use this file for private study, scholarship, or research.#
#-----------------------------------------------------------------------------#
#-- File created with Instab - http://www.pconline.com/~smcarey/instab.html --#
#-----------------------------------------------------------------------------#

Author/Artist: Gojira
Title: Explosia
Album: L'enfant sauvage
Transcribed by: jaymz88
D standard (DGCFAD)
Amazing song from once again an amazing album
Watch out the tune, this is not a drop D or a drop C. This is D standard...

Guitar I
-||---------------------------------------------|--x3-------------------------|
-||---------------------------------------------|-----------------------------|
-||---------------------------------------------|-----------------------------|
-||---------------------------------------------|-----------------------------|
-||----------------0------2---3------2/3/2------|-----------------------------|
-||---3--2--1--0---0---0--2---3---0--2/3/2------|-----------------------------|
      -  -  -  -       -          -
Guitar II
-||---------------------x/----------------------|--x4-------------------------|
-||---------------------x/----------------------|-----------------------------|
-||---------------------x/----------------------|-----------------------------|
-||---------------------x/----------------------|-----------------------------|
-||----------------0----x/------------2/3/2-----|-----------------------------|
-||---3--2--1--0---0----x/---------0--2/3/2-----|-----------------------------|
      -  -  -  -                   -

------------------------------------------------------------------------------|
------------------------------------------------------------------------------|
------------------------------------------------------------------------------|
------------------------------------------------------------------------------|
---------------0------2---3------2/3/2---1-1-1-1-1-----1-1-1-1-1-----1-1-1-1--|
---3--2--1--0--0---0--2---3---0--2/3/2---2-2-2-2-2--0--2-2-2-2-2--0--2-2-2-2--|
   -  -  -  -      -          -                     -             -

-----||---x2------------------------------------------------------------------|
-----||-----------------------------------------------------------------------|
-----||-----------------------------------------------------------------------|
-----||-----------------------------------------------------------------------|
-1---||-----------------------------------------------------------------------|
-2---||-----------------------------------------------------------------------|

GO !!
-||---------------------------------------------------------------------------|
-||---------------------------------------------------------------------------|
-||---------------------------------------------------------------------------|
-||---------------------------------------------------------------------------|
-||---------------------------------------------------------------------------|
-||--0-0-0-0-0-0-0-0-0--0---0-0-0-0-0-0-0-0-0--0---0-0-0-0-0-0-0-0-0---0------|
     - - - - - - - - -  -   - - - - - - - - -  -   - - - - - - - - - - -

--------------------------------------------||---------------------------------|
--------------------------------------------||---------------------------------|
--------------------------------------------||---------------------------------|
--------------------------------------------||---------------------------------|
--------------------------------------------||---------------------------------|
-0-0-0-0-0-0-0-0-0-0-0-0-0-0-0-0-0-0-0-0--0-||---------------------------------|
 - - - - - - - - - - - - - - - - - - - -  -

-||------------------------------------------------||-------------------------|
-||------------------------------------------------||-------------------------|
-||----------------------------7-7-7-------7-7-7---||-------------------------|
-||------------------7-7-7-7-7-------7-7-7---------||-------------------------|
-||------------------------------------------------||-------------------------|
-||--0-0-0-0-0-0-0---------------------------------||-------------------------|
 P.M - - - - - - - N.H - - - - - - - - - - - - -

Guitar I
-||---------------------------------------------|--x3-------------------------|
-||---------------------------------------------|-----------------------------|
-||---------------------------------------------|-----------------------------|
-||---------------------------------------------|-----------------------------|
-||----------------0------2---3------2/3/2------|-----------------------------|
-||---3--2--1--0---0---0--2---3---0--2/3/2------|-----------------------------|
      -  -  -  -       -          -
Guitar II
-||---------------------x/----------------------|--x4-------------------------|
-||---------------------x/----------------------|-----------------------------|
-||---------------------x/----------------------|-----------------------------|
-||---------------------x/----------------------|-----------------------------|
-||----------------0----x/------------2/3/2-----|-----------------------------|
-||---3--2--1--0---0----x/---------0--2/3/2-----|-----------------------------|
      -  -  -  -                   -

------------------------------------------------------------------------------|
------------------------------------------------------------------------------|
------------------------------------------------------------------------------|
------------------------------------------------------------------------------|
---------------0------2---3------2/3/2---1-1-1-1-1-----1-1-1-1-1-----1-1-1-1--|
---3--2--1--0--0---0--2---3---0--2/3/2---2-2-2-2-2--0--2-2-2-2-2--0--2-2-2-2--|
   -  -  -  -      -          -                     -             -

-----||-x2--------------------------------------------------------------------|
-----||-----------------------------------------------------------------------|
-----||-----------------------------------------------------------------------|
-----||-----------------------------------------------------------------------|
-1---||-----------------------------------------------------------------------|
-2---||-----------------------------------------------------------------------|


-||------------------------------------------------||-------------------------|
-||------------------------------------------------||-------------------------|
-||----------------------------7-7-7-------7-7-7---||-------------------------|
-||------------------7-7-7-7-7-------7-7-7---------||-------------------------|
-||------------------------------------------------||-------------------------|
-||--0-0-0-0-0-0-0---------------------------------||-------------------------|
 P.M - - - - - - - N.H - - - - - - - - - - - - -



-||---------------------------------------------------------------------------|
-||---------------------------------------------------------------------------|
-||---------------------------------------------------------------------------|
-||---------------------------------------------------------------------------|
-||---------------------------------------------------------------------------|
-||--0-0-0-0-0-0-0-0-0--0---0-0-0-0-0-0-0-0-0--0---0-0-0-0-0-0-0-0-0---0------|
     - - - - - - - - -  -   - - - - - - - - -  -   - - - - - - - - -   -


--------------------------------------------||---------------------------------|
--------------------------------------------||---------------------------------|
--------------------------------------------||---------------------------------|
--------------------------------------------||---------------------------------|
--------------------------------------------||---------------------------------|
-0-0-0-0-0-0-0-0-0-0-0-0-0-0-0-0-0-0-0-0--0-||---------------------------------|
 - - - - - - - - - - - - - - - - - - - -  -


-||---------------------------------------------|--x3-------------------------|
-||---------------------------------------------|-----------------------------|
-||---------------------------------------------|-----------------------------|
-||---------------------------------------------|-----------------------------|
-||----------------0------2---3------2/3/2------|-----------------------------|
-||---3--2--1--0---0---0--2---3---0--2/3/2------|-----------------------------|
      -  -  -  -       -          -

------------------------------------------------------------------------------|
------------------------------------------------------------------------------|
------------------------------------------------------------------------------|
------------------------------------------------------------------------------|
---------------0------2---3------2/3/2---1-1-1-1-1-----1-1-1-1-1-----1-1-1-1--|
---3--2--1--0--0---0--2---3---0--2/3/2---2-2-2-2-2--0--2-2-2-2-2--0--2-2-2-2--|
   -  -  -  -      -          -                     -             -


-------------------------------------------||---------------------------------|
-------------------------------------------||---------------------------------|
-------------------------------------------||---------------------------------|
-------------------------------------------||---------------------------------|
-1-1-1-1-1-1-1-1-1-1-1-1-1-1-1-1-1-1-1-1---||---------------------------------|
-2-2-2-2-2-2-2-2-2-2-2-2-2-2-2-2-2-2-2-2---||---------------------------------|


-||----------------------------------------------------------------------|x2--|
-||----------------------------------------------------------------------|----|
-||----------------------------------------------------------------------|----|
-||----------------------------------------------------------------------|----|
-||------1---------------0-------------1------3-------0------------------|----|
-||--3-------------3--1------------3--------------1----------------------|----|
  Tremolo Picking

-|-----------------------------------------------------------------------|x4--|
-|-----------------------------------------------------------------------|----|
-|-----------------------------------------------------------------------|----|
-|------1-----------------0-------------1---3--------0-------------------|----|
-|--3-------------3---1--------------3-----------1-----------------------|----|
-|-----------------------------------------------------------------------|----|
    Tremolo picking

-|-----------------------------------------------------------------------|----|
-|-----------------------------------------------------------------------|----|
-|-----------------------------------------------------------------------|----|
-|-----------------------------------------------------------------------|----|
-|--0-0-0-0-0-0-0-0-0-0-0-0-0-0-0-0-0-0-0-0-0-0-0-0-0-0-0-0-0-0-0-0-0-0--|----|
-|-----------------------------------------------------------------------|----|

-|-----------------------------------------------------------------------|x4--|
-|-----------------------------------------------------------------------|----|
-|-----------------------------------------------------------------------|----|
-|------1-----------------0-------------1---3--------0-------------------|----|
-|--3-------------3---1--------------3-----------1-----------------------|----|
-|-----------------------------------------------------------------------|----|



-----------------||-----------------------------------------------------------|
-----------------||-----------------------------------------------------------|
-----------------||-----------------------------------------------------------|
----------0------||-----------------------------------------------------------|
------1----------||-----------------------------------------------------------|
---3-------------||-----------------------------------------------------------|


-||----------------------------------------------------|----------------------|
-||----------------------------------------------------|----------------------|
-||----------------------------------------------------|----------------------|
-||----------------------------------------------------|----------------------|
-||--1-1-1-1-1-1-1-1--1-1---1-1-1-1-1-1-1-1--1-1-------|----------------------|
-||--3-3-3-3-3-3-3-3--3-3---3-3-3-3-3-3-3-3--3-3-------|----------------------|
     - - - - - - - -  - -   - - - - - - - -  - -

-|------------------------------------------------------||--------------------|
-|------------------------------------------------------||--------------------|
-|------------------------------------------------------||--------------------|
-|----------0--------0-------------0--------------------||--------------------|
-|------1--------3-------------1-----------0------------||--------------------|
-|---3----------------------3---------------------------||--------------------|
There is some Harmonics at the end of this riff.
comments
We did not receive enough feedback on this tab! Please rate:
print report bad tab
1 2 3 4 5
I want to post or [tab]
guest
You may want to rate the tab now too:
select rating
Please do not post tabs as comments. Select "correction" instead!