Oops, an error
Loading. Please wait.

From The Sky Tab

ver3
ver3

Whole song

Interactive

More versions @911Tabs.com
5,408 views 12 this week
6 commentsread comments
1 2 3 4 5
accurate
x 5
Autoscroll
+/-
esc
set tempo
stop
Contributor
Difficulty
Tuning
novice
D G C F A D
Hey! There's an official Ultimate Guitar app which is ideal
for learning songs when you're away from computer. Get the app
WARNING: You are trying to view
                                    content from Ultimate-Guitar.com
                                    in an unauthorized application,
                                    which is prohibited.

                                    Please use an official Ultimate
                                    Guitar Tabs application for iPhone,
                                    iPad or Android to access legitimate
                                    chords, guitar, bass, and drum tabs
                                    from Ultimate-Guitar.com database.

                                    Type "ultimate guitar tabs" in Apple
                                    App Store's or Android Market's
                                    search to find the application.
Artist : Gojira
Album : From Mars To Sirius
Song : From The Sky

Tuning : D standard (DGCFAD)

This song is fairly easy, the riffs are simple, all you need is good practice with 
picking (this song is a good exercise for this technique).

D|--------------------------------------------------|
A|--------------------------------------------------|
F|--------------------------------------------------|
C|--------------------------------------------------|
G|--------------------------------------------------|
D|--0-0-0-0-0-0-3-3-3-3-3-3-2-2-2-2-2-2-2-2-2-2-2-2-|

D|--------------------------------------------------|
A|--------------------------------------------------|
F|--------------------------------------------------|
C|--------------------------------------------------|
G|--------------------------------------------------|
D|--2-2-5-5-5-5-5-5-3-3-3-3-3-3-3-3-3-3-2-2-2-2-2-2-|

D|--------------------------------------------------|
A|--------------------------------------------------|
F|--------------------------------------------------|
C|--------------------------------------------------|
G|--------------------------------------------------|
D|--0-0-0-0-0-0-3-3-3-3-3-3-2-2-2-2-2-2-2-2-2-2-2-2-|

D|--------------------------------------|
A|--------------------------------------|
F|--------------------------------------|
C|-----7--7--7--5--5--5--9--9--9--7--7--|
G|-----7--7--7--5--5--5--9--9--9--7--7--|
D|--2--5--5--5--3--3--3--7--7--7--5--5--|

Repeat these last 4 measures 4 times.
Then...
(this part is played only once)
D|--------------------------------------|
A|--------------------------------------|
F|--------------------------------------|
C|--------------------------------------|
G|--0--2--3--0--2--3--0--2--3--0--2--3--|
D|--0--2--3--0--2--3--0--2--3--0--2--3--|

Verse

D|----------x----------x--|--------x--------x--|--------x--------x--|
A|----------x----------x--|--------x--------x--|--------x--------x--|
F|----------x----------x--|--------x--------x--|--------x--------x--|
C|----------x----------x--|--------x--------x--|--------x--------x--|
G|--0--3----x--0--3----x--|--0--3--x--0--3--x--|--0--3--x--0--2--x--|
D|--0--3----x--0--3----x--|--0--3--x--0--3--x--|--0--3--x--0--2--x--|

D|--------x--------x--|--------x--------x--|--------x--------x--|
A|--------x--------x--|--------x--------x--|--------x--------x--|
F|--------x--------x--|--------x--------x--|--------x--------x--|
C|--------x--------x--|--------x--------x--|--------x--------x--|
G|--0--2--x--0--2--x--|--0--2--x--0--2--x--|--0--3--x--0--3--x--|
D|--0--2--x--0--2--x--|--0--2--x--0--2--x--|--0--3--x--0--3--x--|

D|----------x----------x--|--------x--------x--|--------x--------x--|
A|----------x----------x--|--------x--------x--|--------x--------x--|
F|----------x----------x--|--------x--------x--|--------x--------x--|
C|----------x----------x--|--------x--------x--|--------x--------x--|
G|--0--3----x--0--3----x--|--0--3--x--0--3--x--|--0--2--x--0--2--x--|
D|--0--3----x--0--3----x--|--0--3--x--0--3--x--|--0--2--x--0--2--x--|

D|--------x--------x--|--------x-----------|--------------------|
A|--------x--------x--|--------x-----------|--------------------|
F|--------x--------x--|--------x-----------|--------------------|
C|--------x--------x--|--------x--------5--|--------5--------5--|
G|--0--2--x--0--2--x--|--0--2--x--0--3--3--|--0--3--3--0--3--3--|
D|--0--2--x--0--2--x--|--0--2--x--0--3--3--|--0--3--3--0--3--3--|

D|--------------------|--------------------|--------------------|
A|--------------------|--------------------|--------------------|
F|--------------------|--------------------|--------------------|
C|--------5--------5--|--------4--------4--|--------4--------4--|
G|--0--3--3--0--3--3--|--0--2--2--0--2--2--|--0--2--2--0--2--2--|
D|--0--3--3--0--3--3--|--0--2--2--0--2--2--|--0--2--2--0--2--2--|

D|--------------------|--------x-----------|--------------------|
A|--------------------|--------x-----------|--------------------|
F|--------------------|--------x-----------|--------------------|
C|--------4--------4--|--------x--------5--|--------5--------5--|
G|--0--2--2--0--2--2--|--0--3--x--0--3--3--|--0--3--3--0--3--3--|
D|--0--2--2--0--2--2--|--0--3--x--0--3--3--|--0--3--3--0--3--3--|

D|--------------------|--------------------|--------------------------|
A|--------------------|--------------------|--------------------------|
F|--------------------|--------------------|--------------------------|
C|--------5--------4--|--------4--------4--|--------4--------4--------|
G|--0--3--3--0--2--2--|--0--2--2--0--2--2--|--0--2--2--0--2--2--0--2--|
D|--0--3--3--0--2--2--|--0--2--2--0--2--2--|--0--2--2--0--2--2--0--2--|

Chorus... kinda


D|--------------------------------------------------|
A|--------------------------------------------------|
F|--------------------------------------------------|
C|--------------------------------------------------|
G|--------------------------------------------------|
D|--0-0-0-0-0-0-3-3-3-3-3-3-2-2-2-2-2-2-2-2-2-2-2-2-|


D|--------------------------------------------------|
A|--------------------------------------------------|
F|--------------------------------------------------|
C|--------------------------------------------------|
G|--------------------------------------------------|
D|--2-2-5-5-5-5-5-5-3-3-3-3-3-3-3-3-3-3-2-2-2-2-2-2-|


D|--------------------------------------------------|
A|--------------------------------------------------|
F|--------------------------------------------------|
C|--------------------------------------------------|
G|--------------------------------------------------|
D|--0-0-0-0-0-0-3-3-3-3-3-3-2-2-2-2-2-2-2-2-2-2-2-2-|


D|--------------------------------------|
A|--------------------------------------|
F|--------------------------------------|
C|--------------------------------------|
G|--------------------------------------|
D|--2--5--5--5--3--3--3--7--7--7--5--5--|

D|--------------------------------------------------|
A|--------------------------------------------------|
F|--------------------------------------------------|
C|--------------------------------------------------|
G|--------------------------------------------------|
D|--0-0-0-0-0-0-3-3-3-3-3-3-2-2-2-2-2-2-2-2-2-2-2-2-|


D|--------------------------------------------------|
A|--------------------------------------------------|
F|--------------------------------------------------|
C|--------------------------------------------------|
G|--------------------------------------------------|
D|--2-2-5-5-5-5-5-5-3-3-3-3-3-3-3-3-3-3-2-2-2-2-2-2-|


D|--------------------------------------------------|
A|--------------------------------------------------|
F|--------------------------------------------------|
C|--------------------------------------------------|
G|--------------------------------------------------|
D|--3-3-3-3-3-3-3-3-3-3-3-3-2-2-2-2-2-2-2-2-2-2-2-2-|

                                         Verse


D|--------------------------------------|--------x--------x--|
A|--------------------------------------|--------x--------x--|
F|--------------------------------------|--------x--------x--|
C|--------------------------------------|--------x--------x--|
G|--------------------------------------|--0--3--x--0--3--x--|
D|--2--5--5--5--3--3--3--7--7--7--5--5--|--0--3--x--0--3--x--|

D|--------------------|--------------------|--------------------|
A|--------------------|--------------------|--------------------|
F|--------------------|--------------------|--------------------|
C|--------5--------5--|--------5--------4--|--------4--------4--|
G|--0--3--3--0--3--3--|--0--3--3--0--2--2--|--0--2--2--0--2--2--|
D|--0--3--3--0--3--3--|--0--3--3--0--2--2--|--0--2--2--0--2--2--|

D|--------------------|--------------------|--------------------|
A|--------------------|--------------------|--------------------|
F|--------------------|--------------------|--------------------|
C|--------4--------4--|--------5--------5--|--------5--------5--|
G|--0--2--2--0--2--2--|--0--3--3--0--3--3--|--0--3--3--0--3--3--|
D|--0--2--2--0--2--2--|--0--3--3--0--3--3--|--0--3--3--0--3--3--|

D|--------------------|--------------------|--------------------|
A|--------------------|--------------------|--------------------|
F|--------------------|--------------------|--------------------|
C|--------5--------5--|--------4--------4--|--------4--------4--|
G|--0--3--3--0--3--3--|--0--2--2--0--2--2--|--0--2--2--0--2--2--|
D|--0--3--3--0--3--3--|--0--2--2--0--2--2--|--0--2--2--0--2--2--|

D|-----------------x--|--------x-----------|--------------------|
A|-----------------x--|--------x-----------|--------------------|
F|-----------------x--|--------x-----------|--------------------|
C|--------4--------x--|--------x--------5--|--------5--------5--|
G|--0--2--2--0--3--x--|--0--3--x--0--3--3--|--0--3--3--0--3--3--|
D|--0--2--2--0--3--x--|--0--3--x--0--3--3--|--0--3--3--0--3--3--|

D|--------------------|--------------------|--------------------|
A|--------------------|--------------------|--------------------|
F|--------------------|--------------------|--------------------|
C|--------4--------4--|--------4--------4--|--------4--------4--|
G|--0--2--2--0--2--2--|--0--2--2--0--2--2--|--0--2--2--0--2--2--|
D|--0--2--2--0--2--2--|--0--2--2--0--2--2--|--0--2--2--0--2--2--|


D|--------x--------x--|--------------------|--------------------|
A|--------x--------x--|--------------------|--------------------|
F|--------x--------x--|--------------------|--------------------|
C|--------x--------x--|--------5--------5--|--------5--------4--|
G|--0--3--x--0--3--x--|--0--3--3--0--3--3--|--0--3--3--0--2--2--|
D|--0--3--x--0--3--x--|--0--3--3--0--3--3--|--0--3--3--0--2--2--|


D|--------------------|--------------------------|
A|--------------------|--------------------------|
F|--------------------|--------------------------|
C|--------4--------4--|--------4--------4--------|
G|--0--2--2--0--2--2--|--0--2--2--0--2--2--0--2--|
D|--0--2--2--0--2--2--|--0--2--2--0--2--2--0--2--|


Chorus

3 times
D|--------------------------------------------------|
A|--------------------------------------------------|
F|--------------------------------------------------|
C|--------------------------------------------------|
G|--------------------------------------------------|
D|--0-0-0-0-0-0-3-3-3-3-3-3-2-2-2-2-2-2-2-2-2-2-2-2-|

D|--------------------------------------------------|
A|--------------------------------------------------|
F|--------------------------------------------------|
C|--------------------------------------------------|
G|--------------------------------------------------|
D|--2-2-5-5-5-5-5-5-3-3-3-3-3-3-3-3-3-3-2-2-2-2-2-2-|

D|--------------------------------------------------|
A|--------------------------------------------------|
F|--------------------------------------------------|
C|--------------------------------------------------|
G|--------------------------------------------------|
D|--0-0-0-0-0-0-3-3-3-3-3-3-2-2-2-2-2-2-2-2-2-2-2-2-|

D|--------------------------------------|
A|--------------------------------------|
F|--------------------------------------|
C|-----7--7--7--5--5--5--9--9--9--7--7--|
G|-----7--7--7--5--5--5--9--9--9--7--7--|
D|--2--5--5--5--3--3--3--7--7--7--5--5--|

Bridge

4 times
D|-----------------------------------------|
A|-----------------------------------------|
F|-----------------------------------------|
C|--3--------3----3------------------------|
G|--2--------2----2---0--6--6--5--4--3--2--|
D|--0--0--0--0-0--0---0--------------------|

D|--------------------------------------------------------|
A|--------------------------------------------------------|
F|--------------------------------------------------------|
C|--------------------------------------------------------|
G|--6--6--6--5--5--4--6--6--6--5--5--5--4--4--4--3--3--3--|
D|--------------------------------------------------------|


D|-----------------------------------------|3 times
A|-----------------------------------------|
F|-----------------------------------------|
C|--3--------3----3------------------------|
G|--2--------2----2---0--6--6--5--4--3--2--|
D|--0--0--0--0-0--0---0--------------------|
then..
D|------------------------------|
A|------------------------------|
F|--4------4------4-4--4--4-4---|
C|------------------------------|
G|--2------2------2-2--2--2-2---|
D|-----0-0----0-0---------------|

D|-----------------------------------------|3 times
A|-----------------------------------------|
F|-----------------------------------------|
C|--3--------3----3------------------------|
G|--2--------2----2---0--6--6--5--4--3--2--|
D|--0--0--0--0-0--0---0--------------------|
then again...
D|------------------------------|
A|------------------------------|
F|--4------4------4-4--4--4-4---|
C|------------------------------|
G|--2------2------2-2--2--2-2---|
D|-----0-0----0-0---------------|

D|--------------------------|--------x--------x--|--------------------|
A|--------------------------|--------x--------x--|--------------------|
F|--4-----4-----4-----4--4--|--------x--------x--|--------------------|
C|--------------------------|--------x--------x--|--------5--------5--|
G|--2-----2-----2-----2--2--|--0--3--x--0--3--x--|--0--3--3--0--3--3--|
D|--------------------------|--0--3--x--0--3--x--|--0--3--3--0--3--3--|

D|--------------------|--------------------|--------------------|
A|--------------------|--------------------|--------------------|
F|--------------------|--------------------|--------------------|
C|--------5--------4--|--------4--------4--|--------4--------4--|
G|--0--3--3--0--2--2--|--0--2--2--0--2--2--|--0--2--2--0--2--2--|
D|--0--3--3--0--2--2--|--0--2--2--0--2--2--|--0--2--2--0--2--2--|

D|--------------------|--------------------|--------------------|
A|--------------------|--------------------|--------------------|
F|--------------------|--------------------|--------------------|
C|--------5--------5--|--------5--------5--|--------5--------5--|
G|--0--3--3--0--3--3--|--0--3--3--0--3--3--|--0--3--3--0--3--3--|
D|--0--3--3--0--3--3--|--0--3--3--0--3--3--|--0--3--3--0--3--3--|

D|--------------------|--------------------|-----------------x--|
A|--------------------|--------------------|-----------------x--|
F|--------------------|--------------------|-----------------x--|
C|--------4--------4--|--------4--------4--|--------4--------x--|
G|--0--2--2--0--2--2--|--0--2--2--0--2--2--|--0--2--2--0--3--x--|
D|--0--2--2--0--2--2--|--0--2--2--0--2--2--|--0--2--2--0--3--x--|

D|--------x-----------|--------------------|--------------------|
A|--------x-----------|--------------------|--------------------|
F|--------x-----------|--------------------|--------------------|
C|--------x--------5--|--------5--------5--|--------4--------4--|
G|--0--3--x--0--3--3--|--0--3--3--0--3--3--|--0--2--2--0--2--2--|
D|--0--3--x--0--3--3--|--0--3--3--0--3--3--|--0--2--2--0--2--2--|

D|--------------------|--------------------|--------x--------x--|
A|--------------------|--------------------|--------x--------x--|
F|--------------------|--------------------|--------x--------x--|
C|--------4--------4--|--------4--------4--|--------x--------x--|
G|--0--2--2--0--2--2--|--0--2--2--0--2--2--|--0--3--x--0--3--x--|
D|--0--2--2--0--2--2--|--0--2--2--0--2--2--|--0--3--x--0--3--x--|

D|--------------------|--------------------|--------------------|
A|--------------------|--------------------|--------------------|
F|--------------------|--------------------|--------------------|
C|--------5--------5--|--------5--------4--|--------4--------4--|
G|--0--3--3--0--3--3--|--0--3--3--0--2--2--|--0--2--2--0--2--2--|
D|--0--3--3--0--3--3--|--0--3--3--0--2--2--|--0--2--2--0--2--2--|

                             Interlude
D|--------------------------|--------------------------------------------------|
A|--------------------------|--------------------------------------------------|
F|--------------------------|--5-5-5-5-5-5-5-5-5-5-5-5-5-5-5-5-5-5-5-5-5-5-5-5-|
C|--------4--------4--------|--------------------------------------------------|
G|--0--2--2--0--2--2--0--2--|--3-3-3-3-3-3-3-3-3-3-3-3-3-3-3-3-3-3-3-3-3-3-3-3-|
D|--0--2--2--0--2--2--0--2--|--------------------------------------------------|

D|--------------------------------------------------|
A|--------------------------------------------------|
F|--4-4-4-4-4-4-4-4-4-4-4-4-4-4-4-4-4-4-4-4-4-4-4-4-|
C|--------------------------------------------------|
G|--2-2-2-2-2-2-2-2-2-2-2-2-2-2-2-2-2-2-2-2-2-2-2-2-|
D|--------------------------------------------------|

D|--------------------------------------------------------------------------|
A|--------------------------------------------------------------------------|
F|--12-12-12-12-12-12-12-12-12-12-12-12-12-12-12-12-12-12-12-12-12-12-12-12-|
C|--------------------------------------------------------------------------|
G|--10-10-10-10-10-10-10-10-10-10-10-10-10-10-10-10-10-10-10-10-10-10-10-10-|
D|--------------------------------------------------------------------------|

D|--------------------------------------------------------|
A|--------------------------------------------------------|
F|--7-7-7-7-7-7-9-9-9-9-9-9-10-10-10-10-10-10-7-7-7-7-7-7-|
C|--------------------------------------------------------|
G|--5-5-5-5-5-5-7-7-7-7-7-7--8--8--8--8--8--8-5-5-5-5-5-5-|
D|--------------------------------------------------------|

D|--------------------------------------------------|
A|--------------------------------------------------|
F|--------------------------------------------------|
C|--3-3-3-3-3-3-3-3-3-3-3-3-3-3-3-3-3-3-3-3-3-3-3-3-|
G|--------------------------------------------------|
D|--1-1-1-1-1-1-1-1-1-1-1-1-1-1-1-1-1-1-1-1-1-1-1-1-|

D|--------------------------------------------------|
A|--------------------------------------------------|
F|--------------------------------------------------|
C|--5-5-5-5-5-5-5-5-5-5-5-5-5-5-5-5-5-5-5-5-5-5-5-5-|
G|--------------------------------------------------|
D|--3-3-3-3-3-3-3-3-3-3-3-3-3-3-3-3-3-3-3-3-3-3-3-3-|

D|--------------------------------------------------|
A|--------------------------------------------------|
F|--------------------------------------------------|
C|--------------------------------------------------|
G|--------------------------------------------------|
D|--0-0-0-0-0-0-0-0-0-0-0-0-0-0-0-0-0-0-0-0-0-0-0-0-|

D|--------------------------------------------------|
A|--------------------------------------------------|
F|--------------------------------------------------|
C|--------------------------------------------------|
G|--------------------------------------------------|
D|--0-0-0-0-0-0-0-0-0-0-0-0-1-1-1-1-1-1-0-0-0-0-0-0-|

D|--------------------------------------|--------------------------------------|
A|--------------------------------------|--------------------------------------|
F|--------------------------------------|--------------------------------------|
C|--------3--------3--------3--------3--|--------3--------3--------3--------3--|
G|-----2--------2--------2--------2-----|-----0--------0--------0--------0-----|
D|--3--------3--------3--------3--------|--1--------1--------1--------1--------|

D|--------------------------------------|--------------------------------------|
A|--------------------------------------|--------------------------------------|
F|--------------------------------------|--------------------------------------|
C|--------2--------2--------2--------2--|--------3--------3--------0--------0--|
G|-----2--------2--------2--------2-----|-----2--------2--------2--------2-----|
D|--0--------0--------0--------0--------|--0--------0--------0--------0--------|

D|--------------------------------------|--------------------------------------|
A|--------------------------------------|--------------------------------------|
F|-----------------------------0--------|-----------------------------0--------|
C|--------3--------3--------3-----3-----|--------3--------3--------3-----3-----|
G|-----2--------2--------2-----------2--|-----0--------0--------0-----------0--|
D|--3--------3--------3-----------------|--1--------1--------1-----------------|

D|--------------------------------------|--------------------------------------|
A|--------------------------------------|--------------------------------------|
F|--------------------------------------|--------------------------------------|
C|--------2--------2--------2--------2--|--------3--------3--------0--------0--|
G|-----2--------2--------2--------2-----|-----2--------2--------2--------2-----|
D|--0--------0--------0--------0--------|--0--------0--------0--------0--------|

D|--------------------------------------|--------------------------------------|
A|--------------------------------------|--------------------------------------|
F|--------------------------------------|--------------------------------------|
C|--------3--------3--------3--------3--|--------3--------3--------3--------3--|
G|-----2--------2--------2--------2-----|-----0--------0--------0--------0-----|
D|--3--------3--------3--------3--------|--1--------1--------1--------1--------|

D|--------------------------------------|--------------------------------------|
A|--------------------------------------|--------------------------------------|
F|--------------------------------------|--------------------------------------|
C|--------2--------2--------2--------2--|--------3--------3--------0--------0--|
G|-----2--------2--------2--------2-----|-----2--------2--------2--------2-----|
D|--0--------0--------0--------0--------|--0--------0--------0--------0--------|

D|--------------------------------------|--------------------------------------|
A|--------------------------------------|--------------------------------------|
F|-----------------------------0--------|-----------------------------0--------|
C|--------3--------3--------3-----3-----|--------3--------3--------3-----3-----|
G|-----2--------2--------2-----------2--|-----0--------0--------0-----------0--|
D|--3--------3--------3-----------------|--1--------1--------1-----------------|

D|--------------------------------------|--------------------------------------|
A|--------------------------------------|--------------------------------------|
F|--------------------------------------|--------------------------------------|
C|--2--2--2--2--2--2--2--2--2--2--2--2--|--2--2--2--2--2--2--2--2--2--2--2--2--|
G|--2--2--2--2--2--2--2--2--2--2--2--2--|--2--2--2--2--2--2--2--2--2--2--2--2--|
D|--0--0--0--0--0--0--0--0--0--0--0--0--|--0--0--0--0--0--0--0--0--0--0--0--0--|


Repeat this riff 8 times :

D|--------------------------------------------------|
A|--------------------------------------------------|
F|--------------------------------------------------|
C|--------------------------------------------------|
G|--------------------------2-2-2-2---------2-2-3-3-|
D|--3-3-3-3-3-3-3-3-3-3-3-3---------3-3-3-3---------|

D|--------------------------------------------------|
A|--------------------------------------------------|
F|--------------------------------------------------|
C|--------------------------------------------------|
G|--------------------------3-3-3-3-3-3-5-5-5-5-5-5-|
D|--1-1-1-1-1-1-1-1-1-1-1-1-------------------------|

D|--------------------------------------------------------------|
A|--------------------------------------------------------------|
F|--------------------------------------------------------------|
C|--------------------------------------------------------------|
G|--------------------------10-10-10-10-10-10-10-10-10-10-10-10-|
D|--0-0-0-0-0-0-0-0-0-0-0-0-------------------------------------|

D|--------------------------------------------------|
A|--------------------------------------------------|
F|--------------------------------------------------|
C|--------------------------------------------------|
G|--------------------------8-8-8-8-8-8-8-8-8-8-8-8-|
D|--0-0-0-0-0-0-0-0-0-0-0-0-------------------------|


Outro, repeat twice.

D|--------------------------------------------------|
A|--------------------------------------------------|
F|--------------------------------------------------|
C|--------------------------------------------------|
G|--------------------------------------------------|
D|--0-0-0-0-0-0-3-3-3-3-3-3-2-2-2-2-2-2-2-2-2-2-2-2-|

D|--------------------------------------------------|
A|--------------------------------------------------|
F|--------------------------------------------------|
C|--------------------------------------------------|
G|--------------------------------------------------|
D|--2-2-5-5-5-5-5-5-3-3-3-3-3-3-3-3-3-3-2-2-2-2-2-2-|

D|--------------------------------------------------|
A|--------------------------------------------------|
F|--------------------------------------------------|
C|--------------------------------------------------|
G|--------------------------------------------------|
D|--0-0-0-0-0-0-3-3-3-3-3-3-2-2-2-2-2-2-2-2-2-2-2-2-|

D|--------------------------------------|
A|--------------------------------------|
F|--------------------------------------|
C|-----7--7--7--5--5--5--9--9--9--7--7--|
G|-----7--7--7--5--5--5--9--9--9--7--7--|
D|--2--5--5--5--3--3--3--7--7--7--5--5--|
comments
print report bad tab
6 comments total. Showing first comments.
0 reply
OpethDTMastodon wrote on December 27 2012, 02:34 pm

What do I play and how do I know what to play when there's just a shit ton of "x"'s? Like in this part:
D|-----------------x--|--------x-----------|
A|-----------------x--|--------x-----------|
F|-----------------x--|--------x-----------|
C|--------4--------x--|--------x--------5--|
G|--0--2--2--0--3--x--|--0--3--x--0--3--3--|
D|--0--2--2--0--3--x--|--0--3--x--0--3--3--|

0 reply
skyturnedred wrote on February 11 2013, 06:08 am

Mute all strings with your left hand.

0 reply
OpethDTMastodon wrote on February 11 2013, 05:16 pm

You mean like this?
P.M. P.M.
D|-----------------0--|--------0-----------|
A|-----------------0--|--------0-----------|
F|-----------------0--|--------0-----------|
C|--------4--------0--|--------0--------5--|
G|--0--2--2--0--3--0--|--0--3--0--0--3--3--|
D|--0--2--2--0--3--0--|--0--3--0--0--3--3--|

I want to post or [tab]
guest
You may want to rate the tab now too:
select rating
Please do not post tabs as comments. Select "correction" instead!