Oops, an error
Loading. Please wait.

Gutterflower Tab

ver1
ver1

Album

Whole song

More versions @911Tabs.com
7,687 views 9 this week
no commentswrite comment
1 2 3 4 5
excellent!
x 4
Autoscroll
+/-
esc
set tempo
stop
Contributor
Hey! There's an official Ultimate Guitar app which is ideal
for learning songs when you're away from computer. Get the app
WARNING: You are trying to view
                                    content from Ultimate-Guitar.com
                                    in an unauthorized application,
                                    which is prohibited.

                                    Please use an official Ultimate
                                    Guitar Tabs application for iPhone,
                                    iPad or Android to access legitimate
                                    chords, guitar, bass, and drum tabs
                                    from Ultimate-Guitar.com database.

                                    Type "ultimate guitar tabs" in Apple
                                    App Store's or Android Market's
                                    search to find the application.
Hey All It took a while to do but 
here are all the gutterflower tabs
with the lyrics.. Enjoy and email
me any comments at huntersgte@yahoo.com

Rock On

1. Big Machine         2. Think about me
3. Here is gone        4. You never know
5. What a scene        6. Up Up Up
7. It's Over           8. Symapathy
9. What do you need    10. Smash
11. Tucked Away        12. Truth is a whisper
-------------------------------------------------
1.Big Machine - Have Fun

Correct Tuning:

E=~
B=D
G=A#
D=~
A=A#
E=D#

Intro:
~~~~~~~~~~~~~~~~~~~~~~~~~~~~~~~~~~~~~~~~~~~~~~~~~~~~~~~
----------0-0------------0-0---0-0--0-0---0-0--0-0--0--
5-5-5--5--4-4--4/5-5--5--4-4---0-0--0-0---0-0--0-0--0--
~~~~~~~~~~~~~~~~~~~~~~~~~~~~~~~~~~~~~~~~~~~~~~~~~~~~~~~
5-5-5--5--4-4--4/5-5--5--4-4-4-4-4--4-4---4-4--4-4--2/-
-----------------------------4-4-4--4-4---4-4--4-4--2/-



~~~~~~~~~~~~~~~~~~~~~~~~~~~~~~~~~~~~~~~~~~~~~~~~~~~~~~~
----------0-0------------0-0---0-0--0-0---0-0--0-0-0-0-
4/5-5--5--4-4--4/5-5--5--4-4---0-0--0-0---0-0--0-0-0-0-
~~~~~~~~~~~~~~~~~~~~~~~~~~~~~~~~~~~~~~~~~~~~~~~~~~~~~~~
4/5-5--5--4-4--4/5-5--5--4-4-0-2-2--0-0---4-4--2-2/0-0-
-----------------------------0-2-2--0-0---4-4--2-2/0-0- repeat


Verse Play Intro 2x


Pre-Chorus:
~~~~~~~~~~~~~~~~~~~~~~~~~~~~~~~~~~~~~~~~~~~~~~
--3-3-3-3-3-0-0-0-0-0-0-3-3-3-3-3-0-0-0-0-0-0-
--0-0-0-0-0-0-0-0-0-0-0-0-0-0-0-0-0-0-0-0-0-0-
~~~~~~~~~~~~~~~~~~~~~~~~~~~~~~~~~~~~~~~~~~~~~~
----------------------------------------------
----------------------------------------------

~~~~~~~~~~~~~~~~~     
---0-0-0--0-0-0-0      
---0-0-0--0-0-0-0      
~~~~~~~~~~~~~~~~~      
-2/4-4-4--4-4-4-2      
-2/4-4-4--4-4-4-2     

~~~~~~~~~~~~~~~~~~~~~~~~~~~~~~~~~~~~~~~~~~~~~~
--3-3-3-3-3-0-0-0-0-0-0-3-3-3-3-3-0-0-0-0-0-0-
--0-0-0-0-0-0-0-0-0-0-0-0-0-0-0-0-0-0-0-0-0-0-
~~~~~~~~~~~~~~~~~~~~~~~~~~~~~~~~~~~~~~~~~~~~~~
----------------------------------------------
----------------------------------------------
     
~~~~~~~~~~~~~~~~~~~~~~~
--0--0-0--0-0-0--0-0-0
--0--0-0--0-0-0--0-0-0-
~~~~~~~~~~~~~~~~~~~~~~~
--2--0-0--2/4-4--2-2-0-
--2--0-0--2/4-4--2-2-0-



Chorus:
      ~~~~~~~~~~~~~~~~~~~~~~~~~~~~~~~~~~~~~~~~~~~~~~~~~~~~~~~~~~~~~~
      --0-0-0-0-0-0-0-0-0-0-0-0-0-0-0-0-0-0-0-0-0-0-0-0-0-0-0-0-0-0-
      --0-0-0-0-0-0-0-0-0-0-0-0-0-0-0-0-0-0-0-0-0-0-0-0-0-0-0-0-0-0-
      ~~~~~~~~~~~~~~~~~~~~~~~~~~~~~~~~~~~~~~~~~~~~~~~~~~~~~~~~~~~~~~
      --7-7-7-7-7-7-7-7-7-7/2-2-2-2-2-2-2-2-2-2-4-4-4-4-4-4-4-4-4-4-
      --7-7-7-7-7-7-7-7-7-7/2-2-2-2-2-2-2-2-2-2/4-4-4-4-4-4-4-4-4-4-

      ~~~~~~~~~~~~~~~~~~~~~~
      --0-0-0-0-0-0-0-0-0-0-
      --0^0-0-0-0-0-0-0-0-0-
      ~~~~~~~~~~~~~~~~~~~~~~
      --2-2-2-2-2-2-2-2-0-0-
      --2-2-2-2-2-2-2-2-0-0-

      ~~~~~~~~~~~~~~~~~~~~~~~~~~~~~~~~~~~~~~~~~~~~~~~~~~~~~~~~~~~~~~
      --0-0-0-0-0-0-0-0-0-0-0-0-0-0-0-0-0-0-0-0-0-0-0-0-0-0-0-0-0-0-
      --0-0-0-0-0-0-0-0-0-0-0-0-0-0-0-0-0-0-0-0-0-0-0-0-0-0-0-0-0-0-
      ~~~~~~~~~~~~~~~~~~~~~~~~~~~~~~~~~~~~~~~~~~~~~~~~~~~~~~~~~~~~~~
      --7-7-7-7-7-7-7-7-7-7/2-2-2-2-2-2-2-2-2-2-4-4-4-4-4-4-4-4-4-4-
      --7-7-7-7-7-7-7-7-7-7/2-2-2-2-2-2-2-2-2-2/4-4-4-4-4-4-4-4-4-4-

      ~~~~~~~~~~~~~~~~~~~~~~~~~~~~~~~~~~~~~~~~~~~~~~~~~~~~~~
      --0-0-0-0-0-0-0-0-0-0--8-8-8--8-8--8-8--8-8-8-8-8-8-8-
      --0-0-0-0-0-0-0-0-0-0--7-7-7--7-7--7-7--7-7-7-7-7-7-7-
      ~~~~~~~~~~~~~~~~~~~~~~~~~~~~~~~~~~~~~~~~~~~~~~~~~~~~~~
      --x-x-x-x-x-x-x-x-x-x--0-0-0--0-0--0-0--0-0-0-0-0-0-0-
      --2-2-2-2-2-2-2-2-2-2--0-0-0--0-0--0-0--0-0-0-0-0-0-0-

REPEAT Verse
Repeat Pre Chours
Repeat Chorus

Bridge:
      ~~~~~~~~~~~~~~~~~~~~~~~~~~~~~~~~~~~~~~~~~~~~~~~~~~~~~~~~~~~~~~~~~~~~~~~~~
      --8-8-8--8-8--8-8-8--8-8--8-8-8--8-8--8-8-8--8-8--8-8-8--8-8--8-8-8--8-8-
      --7-7-7--7-7--7-7-7--7-7--7-7-7--7-7--7-7-7--7-7--7-7-7--7-7--7-7-7--7-7-
      ~~~~~~~~~~~~~~~~~~~~~~~~~~~~~~~~~~~~~~~~~~~~~~~~~~~~~~~~~~~~~~~~~~~~~~~~~
      --0-0-0--0-0--0-0-0--0-0--0-0-0--0-0--0-0-0--0-0--0-0-0--0-0--0-0-0--0-0-
      --0-0-0--0-0--0-0-0--0-0--x-x-x--x-x--x-x-x--x-x--x-x-x--x-x--x-x-x--x-x-

Outro:
~~~~~~~~~~~~~~~~~~~~~~~~~~~~~~~~~~~~~~~~~~~~~~~~~~~~~~~~~~~~~~~~~
--0-0-0-0-0-0-0-0-0-0-0-0-0-0-0-0-0-0-0-0-8-8-8--8-8--8-8-8--8-8-
--0-0-0-0-0-0-0-0-0-0-0-0-0-0-0-0-0-0-0-0-7-7-7--7-7--7-7-7--7-7-
~~~~~~~~~~~~~~~~~~~~~~~~~~~~~~~~~~~~~~~~~~~~~~~~~~~~~~~~~~~~~~~~~
--4-4-4-4-4-4-4-4-4-4/2-2-2-2-2-2-2-2-2-2-0-0-0--0-0--0-0-0--0-0-
--4-4-4-4-4-4-4-4-4-4/2-2-2-2-2-2-2-2-2-2-0-0-0--0-0--0-0-0--0-0-

Repeat 3x

      ~~~~~~~~~~~~~~~~~~~~~~~~~~~~~~~~~~~~~~~~~~~~
      --0-0-0-0-0-0-0-0-0-0-0-0-0-0-0-0-0-0-0-0-8-
      --0-0-0-0-0-0-0-0-0-0-0-0-0-0-0-0-0-0-0-0-7-  (Let Ring)
      ~~~~~~~~~~~~~~~~~~~~~~~~~~~~~~~~~~~~~~~~~~~~
      --4-4-4-4-4-4-4-4-4-4/2-2-2-2-2-2-2-2-2-2-0-
      --4-4-4-4-4-4-4-4-4-4/2-2-2-2-2-2-2-2-2-2-0-

Verse:
Ecstasy is all you need
Living in the big machine
Oh you're so vain
Now your world is way too fast
Nothing's real and nothing lasts
And I'm aware
I'm in love and you don't care

Prechorus:
Turn your anger into lust
I'm still here but you don't trust at all
And I'll be waiting
Love and sex and lonliness
Take what's yours and leave the rest
So I'll survive
God it's good to be alive

Chorus:
I'm torn in pieces
I'm blind and waiting for you
My heart is reeling
I'm blind and waiting for you

Verse:
Still love with all your sins
Wher you stop and I begin
And I'll be waiting
Living like a house on fire
What you fear is your desire
It's hard to deal

Prechorus:
I still love the way you feel
Now this angry little girl
Drowning in this pretty world
Oh who you run to
Swallow all your bitter pills
That's what makes you beautiful
You're all or not
I don't need what you ain't got

Chorus
I'm torn in pieces
I'm blind and waiting for you
My heart is reeling
I'm blind and waiting for you

Outro:
I'm blind and waiting for you
I'm blind and waiting for you 
No I can't believe this could be true
God it's good to be alive
I'm still waitin for you
No I can't believe this could be true
I'm blind and waiting for you
-----------------------------------------------------
2. Think about me

Tuning 
CGDGDD
------------------------

Chords used:
Dsus4 - 22x000   Bm - x44000
Em7   - 44x000   A7 - x22000
Csus2 - 055000   C9 - 000000


   
d---------0------0--|--0--0------0--|-----0--0--0--0--
d---------0------0--|--0--0------0--|-----0--0--0--0--
g------0--0------0--|--0--0---0-----|--0--0--0--0--0--
d--4/5--------5--4--|--4--4---4-----|--5--5--5--5--5--
G--0----------0--0--|--0--0---0-----|--5--5--5--5--5--
C-------------------|---------------|--0--0--0--0--0--

d--0--0---0--0--0--0--|
d--0--0---0--0--0--0--|
g--0--0---0--0--0--0--|  Repeat
d--5--5---5-----5--4--|
g-----5---5-----5--0--|
c-----0---0-----------|


Verse: 
Dsus4             Em7                 Csus2     
You take a lot of chances with your feelings
Em7           Dsus4          C9
No one really knows what you feel
Dsus4              Em7             Csus2
And fiction is the only way you're dealing
Em7                  Dsus4           C9
You turn your pretty head if it gets real


Pre Chours
Em7            Bm
You take it so slowly
Em7                   A7
And your eyes look so lonely
         Csus2
And it's only 


Chours
                    (play intro)
when you think about me Oh yeah
When you think about me
Think about me

Verse
I got head don't let me sleep
You got secret I can't keep
You see a little stranger in your mirror
The girl you never know is what you fear
You take is to so slowly
And your eyes look so lonely
But it's only when you think about me

Oh yeah
When you think about me
Think about me
All you want is something I can't be
All you want from me is what you need
And I'm saying

You take it so slowly
And your eyes look so lonely
But it's only oh you, take it so slowly
Now it's only 'bout me
When you think about me
Think about me
When you think about me
Oh yeah
When you think about me
Think about me
When you think about me

-----------------------------------------------------
3. Here Is Gone

Correct Tuning:
C#G#C#G#C#f

Intro/Verse:
      --0-0-0-0-0-0-0--0-0-0-0-0-0-0--0-0-0-0-0-0-0--0-0-0-0-0-0-0-
      --0-0-0-0-0-0-0--0-0-0-0-0-0-0--0-0-0-0-0-0-0--0-0-0-0-0-0-0-
      --5/7-7-7/5-5-5--5/7-7-7/5-5-5--0-0-0-0-0-0-0--0-0-0-0-0-0-0-
      --7/9-9-9/7-7-7--7/9-9-9/7-7-7--x-x-x-x-x-x-x--x-x-x-x-x-x-x-
      --------------------------------7-7-7-7-7-7-7--5-5-5-5-5-5-5-
      --------------------------------7-7-7-7-7-7-7--5-5-5-5-5-5-5-

Pre-Chorus:
      --0-0-0-0-0-0--0-0-0-0-0-0--0-0-0-0-0-0--
      --0-0-0-0-0-0--0-0-0-0-0-0--0-0-0-0-0-0--
      --2-2-2-2-2-2--4-4-4-4-4-4--7-7-7-7-7-7-- repeat
      --2-2-2-2-2-2--2-2-2-2-2-2--5-5-5-5-5-5--
      -----------------------------------------
      -----------------------------------------

     
Chorus:
      --3-3-3-3-3-3---------------3-3-3-3-3-3--0-0-0-0-0-0--
      --0-0-0-0-0-0--2-2-2-2-2-2--0-0-0-0-0-0--0-0-0-0-0-0--
      --0-0-0-0-0-0--0-0-0-0-0-0--0-0-0-0-0-0--0-0-0-0-0-0--
      --x-x-x-x-x-x--x-x-x-x-x-x--x-x-x-x-x-x--0-0-0-0-0-0--
      ----------------------------4-4-4-4-4-4--x-x-x-x-x-x--
      -----------------------------------------5-5-5-5-5-5--

Bridge:
      --0-0-0-0-0--3-3-3-3-3-3--0-0-0-0-0-0-0--0-0-0-3----------
      --0-0-0-0-0--0-0-0-0-0-0--0-0-0-0-0-0-0--2-2-2-0-0-0-0-0--
      --4-4-4-4-4--x-x-x-x-x-x--0-0-0-0-0-0-0--0-0-0-0-0-0-0-0--
      --4-4-4-4-4--5-5-5-5-5-5--x-x-x-x-x-x-x--x-x-x-x-x-x-x-x--
      --2-2-2-2-2---------------5-5-5-5-5-5-5--4-4-4-4-4-4-4-4--
      ----------------------------------------------------------

      --0-0-0-0-0-0-0-0-0-0-0-0-0-0-0-0-
      --0-0-0-0-0-0-0-0-0-0-0-0-0-0-0-0-
      --0-0-0-0-0-0-0-0-0-0-0-0-0-0-0-0-
      --0-0-0-0-0-0-0-0-0-0-0-0-0-0-0-0-
      --5-5-5-5-5-5-5-5-5-5-5-5-5-5-5-5-
      --5-5-5-5-5-5-5-5-5-5-5-5-5-5-5-5-

Play Intro 2x

Verse (play Intro)
You and I got something
But it's all and then it's nothing to me
And I got my defenses
When it comes to your intentions for me
And we wake up in the breakdown
Of the things we never thought we could be


Pre Chours
I'm not the one who broke you
I'm not the one you should fear
What do you got to move you darling
I thought I lost you somewhere
But you were never really ever there at all

Chorus:
And I want to get free talk to me
I can feel you falling
And I wanted to be all you need
Somehow here is gone

I have no solution
To the sound of this pollution in me
And I was not the answer
So forget you ever thought it was me

I'm not the one who broke you
I'm not the one you should fear
What do you got to move you darling
I thought I lost you somewhere
But you were never really ever there at all

Chorus

And I don't need the fallout of all the past
That's here between us
And I'm not holding on
And all your lies weren't enough to keep me here

Chorus

And I want to get free talk to me
I can feel you falling
I know it's out there
I know it's out there
I can feel you falling
I know it's out there
I know it's out there
Somehow here is gone
----------------------------------------------------
4. You Never Know

Standard Tuning

Chords 
C5 - x355xx         A5 - 577xxx
D5 - x577xx         G5 - 355xxx
F5 - x8(10)(10)xx   E5 - x799xx

Intro 

e|----------------------|--------------0------|---------------------|
B|----------------------|---------------------|---------------------|
G|---------5------5-----|--5-------5------5---|--------5------5-----|
D|---2--2-----2------2--|------3--------------|--0--0-----0------0--|
A|----------------------|---------------------|---------------------|
E|----------------------|---------------------|---------------------|

e|------------------|
B|-----------3------|
G|--5-----5------5--|  
D|-----0------------|   
A|------------------|
E|------------------|


Intro 4x

Verse (play intro)
You never know 
some folks think the world just moves to slow
But was it you
who told me I'm your everything


Chours
    C5            D5            F5
You Hit me like I never felt before
C5            A5
Hit me like a sucker punch
F5
Rotten to the core
             C5            D5           F5
You Know you hit me like I never felt before
                   C5
Silly for the last time

(play intro 2x)

Verse (play intro)
You never take
A promise from a man who sheds his skin
Had to wait
for my aching heart to break

Repeat Chours

Bridge:
D5  E5            F5      D5
Now everyone gets angry
      C5               G5
And I feel it when you holdin me
                 D5           E5
But in the right place at the right time
             F5                             E5   D5
to the right degree it's breeding ground for the pain
  A5                 G5
from dealing with your scene
                  C5   G5
You know it ain't easy

Outro Chours
C5            G5           F5
Hit me like I never felf before
C5            G5           F5
Hit me like I never felf before
C5            G5           F5
Hit me like I never felf before
                    C5
I'm silly for the last time
-------------------------------------------------------------
5. What A Scene
Standard Tuning

Chords:

E5    - 022xxx   Em    - 022000   Gmaj7 - x2x032
C5    - x355xx   G5(2) - 3x0033   Dsus  - x0023x
G5(1) - 355xxx   Am    - 002210
F#5   - 244xxx   Cadd9 - X32033


Intro:
e|-----------------------|
B|-----------------------|
G|-----------------------|  repeat
D|--2---0---2---------0--|   4  x
A|--2---0---2---0--2-----|
E|--0-------0------------|


Verse

            E5                       C5                 G5(1)
When you're feeling all wrong in the back of your mind again
         F#5     E5                 C5                   G5(1)
How does it feel When you drop down everything's all the same
F#5           E5            G5(1)
Oh Yeah Saccharine caffeine nicotine gum
         E5                   G5(1)
Yeah it tastes sweet but it's not for long
      E5             G5(1)             C5
And I just think you thought it would be


            E5                       C5             G5(1)         F#5
When you're looking for truth on the cover of a magazine How does it feel
E5                C5                    G5(1)  F5
When you find out what you're not gonna be, Oh Yeah
              E5                 G5(1)
They give you your image and the things you believe
     E5                G5(1)
Open your eyes tell me what did you see
      E5             G5(1)         C5
And I just think you thought it surreal


G5(2)       Em               Cadd9
How does it feel when you're out on your own
    G5(2)        Em             Cadd9
And now it's too late to come home
         G5(2)      Em               Cadd9
And it's hard to be free when you're down on your knees
        Am            G5(2)       Em
Take it easy till you make it alone


             E5                    C5             G5(1)
Now you're a supermarket punk rock television comedy   
       F#5
Out on the scene
E5               C5                    G5(1)    F#5
Yeah I bit down now there's no hand to feed Oh Yeah
                  E5         G5(1)
And all the beautiful images lining your walls
    E5                G5(1)
Pop radio screaming down the halls
    E5            G5(1)             C5
Now you think you found something real
                E5                 G5(1)
When it's all about money and the things that you need
        E5              G5(1)
Live a big lie and they all believe
       E5            G5(1)       C5
Now I just find that somehow obscene


Chours (1x)
        Am            G5(2)      Cadd9
Take it easy till you make it alone

Bridge;
       Gmaj7     Em     D     Cadd9
What a scene Yeah
                                   Gmaj7
When it's all been said before And all been done
        Am            G5(2)      Em
Take it easy till you make it alone
        Am            G5(2)      E5
Take it easy till you make it alone     C5            G5(1)             D5
                                  No no no no no no   no no no no no no no no no
                                  repeat 12x
(after 3rd and 8th time)

      E5          C5              G5              D5
These lies weight more than truth innocence looks good on you
     E5       C5                 G5
Now everybody wants to know your name       
----------------------------------------------------------------------
6. Up Up Up

Standard Tuning

Chords:
D     - xx0232    G/D    - xx0787   G     - 320033
D5    - xx023x    G5/D   - xx003x   Csus2 - x3x033
Cadd9 - x32033    Dsus4  - xx0233   Dsus2 - xx0230
A     - x0222x

Intro: (Listen for timing)
D  G/D   D   G/D

Verse:
           D
Are you listening now
        G/D
Are you feeling that way
              D
Aren't you terrified
    G/D                        D5     G5 /D
of waking up to tired to try again

D  G/D

Verse2:
Are You Happy now
That you've shut yourself down
Aren't you paralyzed
By All THe Nonsence Thats gone down

PreChours:
  D            Dsus4                D    Dsus4  D  Dsus4
I know your gonna see these things someday


Chours:
G             Csus2              D       Dsus2  Dsus4
Sorry-eyed we spent so much of your time
    D   G                Csus2       D      Dsus2 Dsus4
Now I'm trying to put your riddle to a rhyme
    D      G        Csus2                 D  Dsus2 Dsus4
And Its up up up I'm heading for this evening
    D      G        Csus2              A
And its up up up I'm heading for the clouds


Verse3:
Coming Down ain't the worst part
It only takes a second
To make a change that's gonna last

Pre Chours:
  D              Dsus4                D     Dsus4 D Dsus4
I hope you're gonna see these things some day
   D             Dsus4                D      Dsus4 D Dsus4
So don't stop lookin' for that light along the way

Chours: (played the same way)
Sorry that we've spent so much of your time
Now I'm tryin' to put your riddle to a rhyme
Now it's up up up and headin' for this evenin'
And it's up up up I'm headed for the clouds

----------------------------------------------------------------------
7. It's Over

Tuning CACECE

Chords:
Am - X04000    Asus - X798XX
C  - 034300    G    - X577XX
F  - X355XX

Intro (listen for timing)
Am       C
Am       C

Verse:
Am
And I didn't think about
    C
All the ways I hurt you and myself
      Am                      C
And I wouldn't say a thing to you
                          F       G
I keep it to myself in My mind
      F              G
And I can't stand without you
      F              G
And I won't find the answers
            F     G
When you're gone


Chours:
F   G    Am G      F
But it's o__ver to you
G   Am               G                  F
And I can't find the answer when you're gone
    G    Am G      F    G
And it's o__ver to you
    Am                 G                F
But you can't find the answer where you are

Am

Verse:
Am                        C
And you know I need you now

And this ain't easy to admit
    Am
But no one needs to know

What goes on behind
               C
The door in my room

I'm kicking through the
            F      G
Walls in my mind
    F                 G
And I can't stand without you
    F                   G
And I won't find the answers
            F     G
When you're gone


Repeat Chours

Am         C   G

Bridge:
                     Am
I won't tear you down
                    C
I won't tear you down
   G               F                G    
To get inside the world you wanted
                              Am
I'm kicking through the walls
                 C
But no one can believe
   G                 F      G
In things that never change

Repeat Chours 2x...

----------------------------------------------------------------------
8. Correct Tuning:

(capo 2nd fret)
E=F#
B=C#
G=F#
D=C#
A=G#
E=C#

(all relative to capo)
Intro/Chours:
-------|---0-0---0-0-0-0-0-0-0-0-0----0-0---0-0-0-0-0-0-0-0-0-
-------|---0-0---0-0-0-0-0-0-0-0-0----0-0---0-0-0-0-0-0-0-0-0-
-------|-0-0-0-0-0-0-0-0-0-0-0-0-0--0-0-0-0-0-0-0-0-0-0-0-0-0-
-------|-5-5-5-5-5-5-5-5-5-0-0-0-0--5-5-5-5-5-5-5-5-5-0-0-0-0-
-0-2-0-|-3-3-3-2-2-2-0-0-0-5-5-5-5--3-3-3-2-2-2-0-0-0-5-5-5-5-
-------|-------------------5-5-5-5--------------------5-5-5-5-

Verse:
----0-0-0-0-0-0-0-0-0-0-0---0-0-0-0-0-0-0-0-0-0-0-
--0-0-0-0-0-0-0-0-0-0-0-0---0-0-0-0-0-0-0-0-0-0-0-
--0-0-0-0-0-0-0-0-0-0-0-0-0-0-0-0-0-0-0-0-0-0-0-0-
--0-0-0-0-0-0-0-0-0-0-0-0-4-4-5-5-5-5-5-5-5-5-5-5-
--x-x-x-x-x-x-x-x-x-x-x-x-3-3-3-3-3-3-3-3-3-3-3-3-
--5-5-5-5-5-5-4-4-4-4-4-4------------------------- repeat 2x


PreChours      
      ----0-0-0-0-0-0-0-0-0-0-0-0-0-0-0-0-0-0-0-0-0-0-0-0-
      --0-0-0-0-0-0-0-0-0-0-0-0-0-0-0-0-0-0-0-0-0-0-0-0-0-
      --0-0-0-0-0-0-0-0-0-0-0-0-0-0-0-0-0-0-0-0-0-0-0-0-0-
      --0-0-0-0-0-0-0-0-0-0-0-0-0-0-0-0-0-0-5-5-5-5-5-5-5-
      --5-5-5-5-5-5-5-5-5-5-5-5-2-2-2-2-2-2-3-3-3-3-3-3-3-
      --5-5-5-5-5-5-4-4-4-4-4-4-2-2-2-2-2-2-0-0-0-0-0-0-0-

      ----0-0-0-0-0-0-0-0-0-0-0---0-0-0-0-0-0-0-0-0-0-0-
      ----0-0-0-0-0-0-0-0-0-0-0---0-0-0-0-0-0-0-0-0-0-0-
      --0-0-0-0-0-0-0-0-0-0-0-0-0-0-0-0-0-0-0-0-0-0-0-0-
      --0-0-0-0-0-5-5-5-5-5-5-5-0-0-0-0-0-7-7-7-5-5-5-5-
      --2-2-2-2-2-3-3-3-3-3-3-3-2-2-2-2-2-5-5-5-3-3-3-3-
      --2-2-2-2-2---------------2-2-2-2-2---------------

      ----0-0-0-0-0-0-0-0-0-0-0-0-0-0-0-0-0-----0-0-0---------
      ----0-0-0-0-0-0-0-0-0-0-0-0-0-0-0-0-0-----0-0-0---------
      --0-0-0-0-0-0-0-0-0-0-0-0-0-0-0-0-0-0-------------------
      --0-0-0-0-0-5-5-5-5-5-5-5/7-7-7-7-7-7-7/9-9-9-9-9-7-5-0-
      --2-2-2-2-2-3-3-3-3-3-3-3/5-5-5-5-5-5-----------------0-
      --2-2-2-2-2---------------------------------------------

Bridge:
      ------0-----------0-----------0-----------0-------
      ------0-0---0-----0-0---0-----0-0---0-----0-0---0-
      ----0-----0-----0-----0-----0-----0-----0-----0---
      ----0-----0-----0-----0-----0-----0-----0-----0---
      --2-----------5-----------5-----------0-----------
      --2-----------4-----------5-----------0-----------

      ------0-----------0-----------0---------0-0---0-0---0-0---0-0-
      ------0-0---0-----0-0---0-----0-0---0---0-0-0-0-0-0-0-0-0-0-0-
      ----0-----0-----0-----0-----0-----0---0-0-0-0-0-0-0-0-0-0-0-0-
      ----0-----0-----0-----0-----0-----0---4-4-4-4-4-4-4-4-4-4-4-4-
      --2-----------5-----------5-----------2-2-2-2-2-2-2-2-2-2-2-2-
      --2-----------4-----------5-----------------------------------

      ------------------------------------------0-0-0---0-0-----0-0-0---------
      ----0-0-0-0-0---0-0-0-0-0---0-0-0-0-0-----0-0-0---0-0-----0-0-0---------
      --0-0-0-0-0-0-0-0-0-0-0-0-0-0-0-0-0-0-0-0-0-0-0-0-0-0-----7-7-7---------
      --5-5-5-5-5-5-4-4-4-4-4-4-5-5-5-5-5-5-5/7-7-7-7-7-7-7-7/9-9-9-9-9-7-5-0-
      --3-3-3-3-3-3-2-2-2-2-2-2-3-3-3-3-3-3-3/5-5-5-5-5-5-5-----------------0-
      ------------------------------------------------------------------------

PLay Intro
Play Chours:
Stranger than your sympathy
This is my apology
I'm killing myself from the inside out
And all my fears have pushed you out

Play Verse
I wish for things that I don't need
All I wanted
And what I chase won't set me free
All I wanted
And I get scared but I'm not crawling on my knees

Play Prechours
Oh yeah everything's all wrong yeah
Everything's all wrong yeah
Where the hell did I think I was

Repeat Chours

Verse:
It's hard to lead the life you choose
All I wanted
When all your luck's run out on you
All I wanted
You can't see when all your dreams are coming true

PreChours:
Oh yeah it's easy to forget yeah
You choke on the regrets yeah
Who the hell did I think I was

Repeat Chours

Play Bridge:
And I wasn't all the things
I tried to make believe I was
And I wouldn't be the one to kneel
Before the dreams I wanted
And all the talk and all the lies
Were all the empty things disguised as me

PLay Intro/Chours
Stranger than your sympathy
Stranger than your sympathy
Mmm Mmm Mmm yeah. 
-------------------------------------------------------
9. What do you need?

Tuning DGCFAE

Chords
C5   - x577xx      F5  - 35xxxx
D5b  - x79xxx      G5  - 57xxxx
Bb5  - 8(10)xxxx   D5a - 02xxxx

Intro: (listen for timing)
             %        *
E|-----------|--0--------|-------------------------|
A|-----------|--0--------|-----0-------------------|
F|--7--7--7--|--0--------|--0-----------0-----0----| Repeat From
C|--7--7--7--|--------4--|--------2--------0-----2-|  % 4x
G|--5--5--5--|-----------|-------------------------|
D|-----------|-----------|-------------------------|


Verse (play intro from * 4x) 
What do you need from me tonight
I feel you look right through me now
I can't pretend it's alright
Maybe we'll find a way somehow


Pre Chours:
F5               G5            D5a  N/C  D5a
  Why do you need to turn it on
F5               G5           Bb5      D5b
  Why does it always feel so wrong


Chours:
            Bb5               D5b
What do you need from me tonight
                 Bb5             D5b
The truth is so complicated now
            Bb5               
You feel so free to say 
      C5             Bb5
You're wrong, You're Wrong, You're wrong


Play from % 1x


Verse (same as before)
Fear makes you fragile darling
Hate is so heavy when you're weak
Now we're both lost in anger
When we're alone we'll
Find some peace


Pre-chours

Chours

Prechours

            Bb5               D5b
What do you need from me tonight
                 Bb5             D5b
The truth is so complicated now
            Bb5               
You feel so free to say 
      C5                          Bb5
You're wrong, You're Wrong, You're wrong, You're Wrong


Repeat Chours

Repeat Prechours

-------------------------------------------------------
10. Smash

Standard Tuning

Chords:
E5  - x79900    A5 - x02200
C#5 - x46600    B5 - x24400
E   - 022100    A  - x02220

Intro
Guitar 1
e|---0-----2-----4--|--2-0-2-0-2-0-|-----0------2----0-|------2---0----
B|------0-----0-----|--------------|-------0-----------|-0-----------0-
G|-4----------------|--------------|--2------2----2----|---2-----------
D|------------------|--------------|-------------------|---------------
A|------------------|--------------|-------------------|---------------
E|------------------|--------------|-------------------|---------------

Guitar 2
e|----------------|----------------|----------------|------------------
B|----------------|----------------|----------------|------------------
G|--9--9--x--9--9-|--9--8--8--8--8-|--8--9--x--9--9-|--9---8--8--8--8--
D|--x--x--x--x--x-|--x--x--x--x--x-|--x--x--x--x--x-|--x---x--x--x--x--
A|--7--7--x--7--7-|--7--7--7--7--7-|--7--7--x--7--7-|--7---7--7--7--7--
E|----------------|----------------|----------------|------------------


Verse
E5   A5 C#5          B5
Hey. . . . .what are ya thinkin'
   A5           C#5   B5
I tried to read your face
E5   A5 C#5          B5
Say. . . . .say what you're thinkin'
     A5           C#5  B5
Don't carry round that pain

Chours
A5          B5      E          A
Everytime I see you pickin' at yourself
              D5                    E5
I love . . .I love when things work out


Verse
Smash. . .I heard ya cryin'
Seven times this year
Crash. . .but now you're smilin'
Holdin' back your tears


Chours
Everytime i see you pickin' at yourself
I love . . .I love when things work out
Everytime I see you torturin' yourself
I love . . .I love when things work out


Bridge
      A                                E
And I see it from another place right now
    A                            B5
I'm comin' home before I hit the ground

Right back where I want to be right now


Play intro then
E5    A5 C#5  B5         A5    C#5  B5
Smash. . . . . And I feel it
REPEAT 3X
-------------------------------------------------------
11. Tucked Away

Standard Tuning

Chords:
F#5 - 244XXX     A5 - X022XX
C#5 - X466XX     E5 - 022XXX
         B5 - X244XX


Intro:
e|-------------------|------------------|--------------------|
B|-------------------|------------------|--------------------|
G|--6--6--4--4--4--2-|--2--2----2--2--2-|--4--4---2--2--2----|
D|--6--6--4--4--4--2-|--2--2----2--2--2-|--4--4---2--2--2----|
A|--4--4--2--2--2--0-|--0--0----0--0--0-|--2--2---0--0--0--2-|
E|-------------------|------------------|--------------------|

e|-------------------
B|-------------------
G|-------------------  repeat
D|-------------------   1x
A|--2--2--2--2--2--2-
E|--0--0--0--0--0--0-



E5     C#5       B5   A5
Well I saw you once
       B5        A5     E5                    C#5  B5  A5
Then I blew it for the next ten thousand days
            B5    A5  E5
Shoulda packed away


  C#5     B5   A5
I needed to go back and show you
  B5     A5    E5                 C#5
I needed to go back, I know it's wrong
             B5       A5  E5
I'll have to get along



Chorus:
F#5            A5          E5
Mama just called and said she's tucked away
F#5            A5          E5
Mama just called and said she's tucked away another day
F#5            A5          E5
Her mama just called and said she's tucked away
    F#5         A5                    B5    A5   E5
Her momma just called and said she's extra sad today



Verse
Well I spent the whole day yesterday on cliches about love
Makin' me remember when your pushes became shoves


Pre Chpurs
I wanted to go back and show you
I needed to go back, I know it's wrong
I'll have to get along

Chorus

Bridge:
    E5                  A5
Now why'd you go and play my trust
                        C#5     E5
Today's the same as yesterday
         A5
And I'm okay
     C#5             E5            A5 
I'll take a doctor's recommended time to get along
                     C#5   E5
Since you've been gone
     A5          B5             F#5
I'll get along oh any way at all

Chours
-------------------------------------------------------
12. Truth is a whisper

Tuning:
C,F,Bb,Eb,C,D,


Intro Riff 1
D |-------------------------------------------------------------R
C |-------------------------------------------------------------E
Eb|--X-X-9-X-9-9-X-X-X-9-9-X-X-X-X-9-X-9-9-X-X-X-9-X-X-X-9-X-X--P
Bb|--X-X-X-X-X-X-X-X-X-X-X-X-X-X-X-X-X-X-X-X-X-X-X-X-X-X-X-X-X--E
F |--X-X-7-X-7-7-X-X-X-7-7-X-X-X-X-7-X-7-7-X-X-X-7-X-X-X-7-X-X--A
C |-------------------------------------------------------------T

Intro Riff 2
D |---------------------------
C |---------------------------
Eb|--------------------------- Repeat
Bb|--------------7--7---5--5--  4x
F |--2--2-5--5---5--5---3--3--
C |--0--0-3--3----------------

Verse Chords (listen on hoe much to play of them)
D |--0------0----
C |--0------0----
Eb|--0------0---- repeat
Bb|--x------x----   2x
F |--5-/7---3----
C |--------------

(On sceond repeat play this at the end)
D |---------------------------------------
C |---------------------------------------
Eb|---------------------------------------
Bb|--7-9--9-9-9-9-9-9-9-9-9-9-9-9-9-------
F |--5-7--7-7-7-7-7-7-7-7-7-7-7-7-7--9 10-
C |----------------------------------7-8--


Chours (Chours chords)
repeat Intro Riff 2 

Truth is a whisper and only a choice
Nobody hears above this noise
Always a risk when you try and believe
I know there's so much more than me

Yeah I got caught in the ruse of the world
It's just a promise no one ever keeps
And now it's changing while we sleep
And no one can see

Chorus:
You know all I am
Feel this moment in you
You know all I am
Can you teach me to believe in something

Sometimes you choke on the smell
Just to breathe
I need to question what I need
Rhythm of silence
That beats through your mind
Still you forget what you deny

Yeah I got caught in the ruse of the world
It's just a promise no one keeps
And now it's changing while we sleep
And no one can see

Chorus

Who's the one you answer to
Do you listen when he speaks
Or is everything for you
And do you find it hard to sleep
Or is it easy on your own
Will you ever find some peace
Before you're gone

Chorus

-------------------------------------------------------
comments
print report bad tab
I want to post or [tab]
guest
You may want to rate the tab now too:
select rating
Please do not post tabs as comments. Select "correction" instead!