Oops, an error
Loading. Please wait.

Let Love In Tab

ver1
ver1

Album

Whole song

More versions @911Tabs.com
10,204 views 6 this week
no commentswrite comment
1 2 3 4 5
worth learning
x 4
Autoscroll
+/-
esc
set tempo
stop
Contributor
WARNING: You are trying to view
                                    content from Ultimate-Guitar.com
                                    in an unauthorized application,
                                    which is prohibited.

                                    Please use an official Ultimate
                                    Guitar Tabs application for iPhone,
                                    iPad or Android to access legitimate
                                    chords, guitar, bass, and drum tabs
                                    from Ultimate-Guitar.com database.

                                    Type "ultimate guitar tabs" in Apple
                                    App Store's or Android Market's
                                    search to find the application.
Goo Goo Dolls - Let Love In Whole Album (except strange Love)

Great Album by a great band i don't think that any of these tabs are 100% correct but 
all sound pretty good. Enjoy!


1.Stay with you


Tuning: Standard

work out strum pattern on your own

Intro:


|------------------------|
|------------------------|
|-55555------------------|
|-55555-55555-7777-33333-|
|-33333-55555-7777-33333-|
|-------33333-5555-11111-| X2


|------------------------|
|------------------------|
|------------------------|
|-77777-55555-3-3-3-3-3--|
|-77777-55555-3-3-3-3-3--|
|-55555-33333-1-1-1-1-1--|

Verse:

In there verse theres acually a guitar playin this but it sounds ok if you just play the 
underneath

|-------------------7---------------7-----|
|-----10-10-------8---8--10------8---8----|
|----7------7---9--------------9-------7--|
|--9--------------------------------------|
|-----------------------------------------|
|-----------------------------------------|

Am7

And these streets

     C
Turn me inside out

     Am7
Everything shines

     G
Leaves me empty still

 Am7            C
and i burn this lonely house down

     Am7
if you run with me

      G
if you run with me


Chorus:

|------------------------|
|------------------------|
|-55555------------------|
|-55555-55555-7777-33333-|
|-33333-55555-7777-33333-|
|-------33333-5555-11111-| X3


|------------------------|
|------------------------|
|------------------------|
|-77777-55555-3-3-3-3-3--|
|-77777-55555-3-3-3-3-3--|
|-55555-33333-1-1-1-1-1--|

Verse2

Prelude :


E5         F5
Now come in from this storm
    E5          F5
And I taste you sweet and warm
              A5
Take what you need
              F5
Take what you need
     C5
From me

F5
Now wake up this world
F5
Wake up tonight
    F5
And run to me
F5
Run to me now


Then play the intro again and finish with the chorus


verse 2 lyrics:


And im fooled by my own desire
I twist my fate
Just to feel you
But you, you turn me toward the light
And you're one with me
Will you run with me

2.Let love in

tuning: DADADD


work out strum pattern on own

Intro/Verse:


|-000000--000000--000000--000000-|-000000--000000--000000--000000-|
|-000000--000000--000000--000000-|-000000--000000--000000--000000-|
|-000000--000000--000000--000000-|-000000--000000--000000--000000-|
|-000000--000000--000000--000000-|-000000--000000--000000--000000-|
|-999999--555555--777777--222222-|-999999--555555--555555--555555-|
|-999999--000000--777777--222222-|-999999--000000--555555--000000-|play x1 for intro
x2 for verse


Chorus

|-----------------------------------------------------------------|
|-----------------------------------------------------------------|
|-----------------------------------------------------------------|
|-0000000000000000-0000000000000000--00000000--00000000--00000000-|
|-5555555555555555-5555555555555555--99999999--77777777--55555555-|
|-0000000000000000-5555555555555555--99999999--77777777--55555555-|X2


Verse2: the same as verse 1 but there is another guitar in there playin this on the
2 strings (standard tuning)

        *
e|-2----2-5----5-0------|-2----2-5----5-0--------|
B|--------------------2-|--------------------3-3-|
                              *
e|-22222222-55555555-00000000---|-22222222-55555555-00000000----------|
B|----------------------------2-|----------------------------33333333-|

*when you play the note on the second fret on the B string bend it up half a step and
3 times


Chorus

Bridge:

|-00000000--00000000--00000000--00000000-|
|-00000000--00000000--00000000--00000000-|
|-00000000--00000000--00000000--00000000-|
|-00000000--00000000--00000000--00000000-|
|-99999999--55555555--77777777--55555555-|
|-99999999--00000000--77777777--55555555-|x2

Chorus


End


3.Feel the silence

tuning standard


Intro:


|-----------0---------------------------0--------------|
|-----3------------3-------------3-------------3-------|
|--------2------2-------------------2-------2----------|
|---0--------------------------0-----------------------|
|------------------------------------------------------|
|------------------------------------------------------|

Verse1:

|-----------0---------------------------0--------------|
|-----3------------3-------------3-------------3-------|
|--------2------2-------------------2-------2----------|
|---0--------------------------0-----------------------|
|------------------------------------------------------|
|------------------------------------------------------|x3

|---0---------------------------3----------------------|
|---0---------------------------3----------------------|
|---0---------------------------0----------------------|
|---2---------------------------0----------------------|
|---2---------------------------2----------------------|
|---0---------------------------3----------------------|

|-----------0---------------------------0--------------|
|-----3------------3-------------3-------------3-------|
|--------2------2-------------------2-------2----------|
|---0--------------------------0-----------------------|
|------------------------------------------------------|
|------------------------------------------------------|x3

|---0---------------------------3----------------------|
|---0---------------------------3----------------------|
|---0---------------------------0----------------------|
|---2---------------------------0----------------------|
|---2---------------------------2----------------------|
|---0---------------------------3----------------------|

chorus: there is acually a guitar playing something else here but i don't know that part 
these chord sound pretty good


          D
And if we feel the silence
               G
Holding this all inside us
           D
Everything means more now than
                G
Words could explain
           D
And if we feel the silence
               G
Leaving this all behind us
               Bm       A       G
Looking for something more to say


verse 2: same as verse 1


chorus


Then theres this bit:

G
How do we hold on
Bm
How do we hold on
G
How do we hold on
Bm
How do we hold on
A     D
How do we hold on


end with intro

4.Better Days


tuning standard


Intro and Verse 1: no guitar


Chorus

G5
so take these words
A5
and sing out loud
G5
cause everyone
A5
is forgiven now
B5                         G5                D5
cause tonights the night the world begins again


Verse 2:

          D
And it's someplace simple where we could live
        G
And something only you can give
          A                   G                D
And thats faith and trust and peace while we're alive
           D
And the one poor child that saved this world
              G
And there's 10 million more who probably could
      A                     G                D
If we all just stopped and said a prayer for them


Chorus


Bridge :

       D
I wish everyone was loved tonight
      G
And some might stop this endless fight
         A                  G                  D
Just a chance that maybe we’ll find better days


Chorus


End


5.Without you here

Tuning: standard


work out strum pattern on own


Intro:Am  C


Verse 1:


        Am
Your loves a gathered storm I chased across the sky
     C
A moment in your arms became the reason why
            Am
And your still the only light that fills the emptiness
     C
The only one I need until my dying breath
      Am
And I would give you everything just to
 G
Feel your open arms
         F
And Im not sure I believe anything I feel


Chorus:

     C                 Am
And now now that your near
                       F
Theres nothing more without you
             C
Without you here


Am  C


Verse 2:

          Am
And Im trying to believe

In things that I dont know
       C
The turning of the world

The color of your soul
      Am
That love could kill the pain

Truth is never vain
            C
It turns strangers into lovers
                      Am
And enemies to brothers
                   G
Just say you understand
                      F
I never had this planned


Chorus:

     C                   Am
And now now that you're near
                         F
Theres nothing more without you
             C
Without you here
             Am
Without you here
                         F
Theres nothing more without you
              C           Am
Without you here
                         F
Theres nothing more without you
              C
Without you here


Bridge:

     C
My head lies to my heart

And my heart it still believes
     Am
It seems the ones who love us are the ones

That we deceive
             F
But your changing everything
                              C
Your changing everything in me


Chorus:

     C                    Am
And now  now that you're near
                       F
Theres nothing more without you
              C
Without you here

6.Listen (sorry i only know the intro,chorus and solo to this song)


Tuning:standard


Intro/chorus1&3:

|-----------------------------|
|--6-6-5-6-5-6----------------|
|--5-5-4-5-4-5--3--3----------|
|---------------3--3--3--3----|
|---------------1--1--3--3----|
|---------------------1--1----|x4

|----------------------------------------------|
|----------------------------------------------|
|--3-3--2-2-----------------3-3--2-2--5-5-5-5--|
|--3-3--2-2--5-5-5-5--------3-3--2-2--5-5-5-5--|
|--1-1--0-0--5-5-5-5--------1-1--0-0--3-3-3-3--|
|------------3-3-3-3---------------------------|


Chorus2:


|---------------------|
|---------------------|
|--3-3--2-2-----------|
|--3-3--2-2--5-5-5-5--|
|--1-1--0-0--5-5-5-5--|
|------------3-3-3-3--|x6


Solo: (play on the b string)

B|-6-5-6----8-10-10-8----8-10-13-13-13-13-11-10-11-10-8-8-|

B|-8-13-18-18-18-18-18-17-15-13-13-18-17--|


7.Give a little bit


Tuning: standard


work out strum pattern on own (listen to the song it's pretty easy)


Intro: G7,C  G7,C  F,G  F,G  F


Verse1:


c                 G7  C
give a little bit

C                         F         G  F  G  F
give a little bit of your love to me

C                G7  C
give a little bit

C                        F         G  F  G  F
give a little bit of my love to you

Am                         D
see the man with the lonely eyes

C                          G
i'll take his hand you'll be suprised

Verse2:


I'll give a little bit
give a little bit of your life for you
Ill give a little bit
Ill give a little bit of your  time to me
Now's the time that we need to share
So send a smile, were on our way back home


Bridge:

C          F            G        F       C       C          F          G        F       C
dont you need to feel at home?
C          F            G        F       C       C          F          G        F       C
ohh you gotta feel it
D                                                           F
yeah im coming home too ohh you gotta sing come a long way tonight


Verse 3

I'll give a little bit
give a little bit of your love to me
Ill give a little bit
Ill give a little bit of my life for you
Now's the time that we need to share
So send a smile, were on our way back home

Bridge:

dont you need to feel at home
ohh you gotta feel it
yeah im coming home too ohh you gotta sing come a long way tonight

8.Can't let it go


Tuning:DADADD

Intro:


D|-0-000--000--0--0-0-000--0--0--0---0--0-|
D|-0-000--000--0--0-0-000--0--0--0---0--0-|
A|-5-555--999--7--7-5-555--12-12-12--9--7-|
D|-0-000--000--0--0-0-000--0--0--0---0--0-|
A|-5-555--999--7--7-5-555--12-12-12--9--7-|
D|-0-000--000--0--0-0-000--0--0--0---0--0-|X2

Verse:


D|-0-0000-00000-00-0-0000-00000-00-0-0000-00000-00-0-0000-00000-00-|
D|-0-0000-00000-00-0-0000-00000-00-0-0000-00000-00-0-0000-00000-00-|
A|-0-0000-00000-00-0-0000-00000-00-0-0000-00000-00-0-0000-00000-00-|
D|-0-0000-00000-00-0-0000-00000-00-0-0000-00000-00-0-0000-00000-00-|
A|-0-0000-00000-00-9-9999-99999-99-7-7777-77777-77-5-5555-55555-55-|
D|-0-0000-00000-00-9-9999-99999-99-7-7777-77777-77-5-5555-55555-55-|X2

Pre Chorus:


D|-0-0000-0-0000-0-0000-0-0000-0-0000-0-0000-|
D|-0-0000-0-0000-0-0000-0-0000-0-0000-0-0000-|
A|-0-0000-0-0000-0-0000-0-0000-0-0000-0-0000-|
D|-0-0000-0-0000-0-0000-0-0000-0-0000-0-0000-|
A|-5-5555-7-7777-9-9999-7-7777-5-5555-7-7777-|
D|-5-5555-7-7777-9-9999-7-7777-5-5555-7-7777-|

Chorus:


D|-0-000-0000-00-00-0-000-0000-00-00-|-0-000-0000-00-00-0-000-0000-00-00-|
D|-0-000-0000-00-00-0-000-0000-00-00-|-0-000-0000-00-00-0-000-0000-00-00-|
A|-0-000-0000-00-00-0-000-0000-00-00-|-0-000-0000-00-00-0-000-0000-00-00-|
D|-0-000-0000-00-00-0-000-0000-00-00-|-0-000-0000-00-00-0-000-0000-00-00-|
A|-0-000-0000-55-00-0-000-0000-77-00-|-0-000-0000-55-00-7-777-7777-00-55-|
D|-0-000-0000-55-00-0-000-0000-77-00-|-0-000-0000-55-00-7-777-7777-00-55-|


D|-0-000-00-0000-00-0-000-00-0000-00-0-000-00-0000-00-|
D|-0-000-00-0000-00-0-000-00-0000-00-0-000-00-0000-00-|
A|-0-000-00-0000-00-0-000-00-0000-00-0-000-00-0000-00-|
D|-0-000-00-0000-00-0-000-00-0000-00-0-000-00-0000-00-|
A|-0-000-00-0000-00-5-555-55-5555-55-7-777-77-7777-77-|
D|-0-000-00-0000-00-5-555-55-5555-55-7-777-77-7777-77-|


Intro

Verse

Pre Chorus

Chorus

Intro

Bridge:

D|-0-0000-00000-00-0-0000-00000-00-0-0000-00000-00-0-0000-00000-00-|
D|-0-0000-00000-00-0-0000-00000-00-0-0000-00000-00-0-0000-00000-00-|
A|-0-0000-00000-00-0-0000-00000-00-0-0000-00000-00-0-0000-00000-00-|
D|-0-0000-00000-00-0-0000-00000-00-0-0000-00000-00-0-0000-00000-00-|
A|-4-4444-44444-44-5-5555-55555-55-0-0000-00000-00-5-5555-55555-55-|
D|-4-4444-44444-44-5-5555-55555-55-0-0000-00000-00-5-5555-55555-55-|x2

Interlude:


D|-0-0000-000-000-00-0-|
D|-0-0000-000-000-00-0-|
A|-0-0000-000-000-00-0-|
D|-0-0000-000-000-00-0-|
A|-5-5555-555-555-55-5-|
D|-5-5555-555-555-55-5-|x2

D|-0---0--0--0--0--0--0--0--0---0-00000000-0-0000000-|-0-00000000-00000000-|
D|-0---0--0--0--0--0--0--0--0---0-00000000-0-0000000-|-0-00000000-00000000-|
A|-12--12-12-12-12-12-12-12-12--9-99999999-7-7777777-|-5-55555555-55555555-|
D|-0---0--0--0--0--0--0--0--0---0-00000000-0-0000000-|-0-00000000-00000000-|
A|-12--12-12-12-12-12-12-12-12--9-99999999-7-7777777-|-5-55555555-55555555-|
D|-0---0--0--0--0--0--0--0--0---0-00000000-0-0000000-|-0-00000000-00000000-|


Chorus

Intro

End


8.We'll be here (when your gone)

P.s: I've also posted this on the site by itself


There are a lot of Guitars in this song(at least 3)so ive tried to tab all of them
Plays Guitar 1). I don't know if

this is 100% right but ive played it with the music and it fits
perfectly. Work out the strum pattern on your own.


All Guitars: standard tuning

Intro:


Guitar 1 (Acoustic)


e|--------------------------------------------------------------------|
B|--------------------------------------------------------------------|
G|------------------7-7-7-7-7-7-7-7-------------------5-5-5-5-5-5-5-5-|
D|-2-2-2-2-2-2-2-2--7-7-7-7-7-7-7-7--5-5-5-5-5-5-5-5--5-5-5-5-5-5-5-5-|
A|-2-2-2-2-2-2-2-2--5-5-5-5-5-5-5-5--7-7-7-7-7-7-7-7--3-3-3-3-3-3-3-3-| X2
E|-0-0-0-0-0-0-0-0-------------------5-5-5-5-5-5-5-5------------------|

Guitar 2 (Distortion)


e|---------------------------------------------------------------|
B|---------------------------------------------------------------|
G|------------------7-7--7--7-------------------------5-5--5--5--|
D|-2-2--2--2--------7-7--7--7--------5-5--5--5--------5-5--5--5--|
A|-2-2--2--2--------5-5--5--5--------7-7--7--7--------3-3--3--5--| X2
E|-0-0--0--0-------------------------5-5--5--5-------------------|


Guitar 3 (Distortion)


e|-----------------|
B|-----------------|
G|-----------------|
D|---5-7-5-7-5-7-5-|
A|-7---------------|
E|-----------------|x8


Verse:

Guitar 1


e|--------------------------------------------------------------------|
B|--------------------------------------------------------------------|
G|------------------7-7-7-7-7-7-7-7-------------------5-5-5-5-5-5-5-5-|
D|-2-2-2-2-2-2-2-2--7-7-7-7-7-7-7-7--5-5-5-5-5-5-5-5--5-5-5-5-5-5-5-5-| X4
A|-2-2-2-2-2-2-2-2--5-5-5-5-5-5-5-5--7-7-7-7-7-7-7-7--3-3-3-3-3-3-3-3-|
E|-0-0-0-0-0-0-0-0-------------------5-5-5-5-5-5-5-5------------------|


Chorus:


Guitar 1


e|--------------------------------------------------------------------|
B|--------------------------------------------------------------------|
G|------------------7-7-7-7-7-7-7-7-------------------5-5-5-5-5-5-5-5-|
D|-5-5-5-5-5-5-5-5--7-7-7-7-7-7-7-7--5-5-5-5-5-5-5-5--5-5-5-5-5-5-5-5-| X2
A|-5-5-5-5-5-5-5-5--5-5-5-5-5-5-5-5--7-7-7-7-7-7-7-7--3-3-3-3-3-3-3-3-|
E|-3-3-3-3-3-3-3-3-------------------5-5-5-5-5-5-5-5------------------|

*                                       *
e|--------------------------------------|
B|--------------------------------------|
G|------------------7-7-7-7-7-7-7-7--5--|
D|-2-2-2-2-2-2-2-2--7-7-7-7-7-7-7-7--5--|
A|-2-2-2-2-2-2-2-2--5-5-5-5-5-5-5-5--3--|
E|-0-0-0-0-0-0-0-0----------------------|(*on final chorus play twice)


Guitar 2


e|--------------------------------------------------------------------|
B|--------------------------------------------------------------------|
G|-12-----12----12---7-----7----7---14-----14----14---5-----5-----5---|
D|-12-12----12----12-7-7-----7----7-14-14----14----14-5-5-----5-----5-| X2
A|-10---10----10-----5---5-----5----12---12----12-----3---3-----3-----|
E|--------------------------------------------------------------------|

e|-------------------------------------|
B|-------------------------------------|
G|-------------------7-----7----7---5--|
D|-14-----14----14---7-7-----7----7-5--|
A|-14-14----14----14-5---5-----5----3--|
E|-12---12----12-----------------------|


Break:

Guitar 3


e|---------------------|
B|---------------------|
G|-9--9-9-x--9-9--9--9-|
D|-9--9-9-x--9-9--9--9-| x4
A|-7--7-7-x--7-7--7--7-|
E|---------------------|

Solo:


Guitar 2

e|-5h7-7-7-77-7-10--12-|
B|---------------------|
G|---------------------|
D|---------------------| X3
A|---------------------|
E|---------------------|


e|-12-1212-1212-15-17--|
B|---------------------|
G|---------------------|
D|---------------------|
A|---------------------|
E|---------------------|

Guitar 3


e|---------------------|
B|---------------------|
G|-9--9-9-x--9-9--9--9-|
D|-9--9-9-x--9-9--9--9-| x4
A|-7--7-7-x--7-7--7--7-|
E|---------------------|


Order:


Intro

Verse

Chorus

Verse

Chorus

Break

Solo

Intro

Chorus*


10.Strange Love

Sorry couldn't work any thing out that sounds half decent


11.Become


Tuning:Half a step down(Eb)


C				G
so much more about you that you never let them see
          Am
You turn away
	   F
But not to me


C
I know how they tried to take you
G				   Am
Held you up and meant to break you down
	      F
But you can't be


C
For so long I tried to reach you
  G
I know I'm almost there
	  Am		    F
I'm close enough for you to see


C                              Am
You've been hiding in the shadows
             G                       F
Have you forgotten how we used to dream
C
Let me remind you
      Am                        G
The light doesn't blind you at all
                   F
It just helps you see
         G
Can you see

C                  G
Yeah you have become
                Am          F
Yeah you have become beautiful

C
And I can't be the stranger
               G
That's been sleeping in your bed just
        Am              F
Turn around and come to me
C
I feel all the pain inside
       G                            Am
And everything you been denied you feel
               F
It's all you feel

C                              Am
You've been hiding in the shadows
             G                       F
Have you forgotten how we used to dream
C
Let me remind you
      Am                        G
The light doesn't blind you at all
                   F
It just helps you see
         G
Can you see


C                  G
Yeah you have become
                Am          F
Yeah you have become beautiful
C                  G
Yeah you have become
                Am          F
Yeah you have become beautiful

C
Brush back your hair and look around you
G                                      Am
Feeling like the truth has found you here
                  F
You're here with me
C                       G
Let love become the mirror
         Am                 F
With no fear where you're from


C             G
You have become
                Am     G           F
Yeah you have become ..... beautiful
comments
print report bad tab
I want to post or [tab]
guest
You may want to rate the tab now too:
select rating
Please do not post tabs as comments. Select "correction" instead!