Oops, an error
Loading. Please wait.

Good Charlotte Tab

17,775 views 6 this week
14 commentsread comments
1 2 3 4 5
accurate
x 11
add to favorites launch autoscroll
font size
0
reset
Autoscroll
+/-
esc
set tempo
stop
WARNING: You are trying to view
                                    content from Ultimate-Guitar.com
                                    in an unauthorized application,
                                    which is prohibited.

                                    Please use an official Ultimate
                                    Guitar Tabs application for iPhone,
                                    iPad or Android to access legitimate
                                    chords, guitar, bass, and drum tabs
                                    from Ultimate-Guitar.com database.

                                    Type "ultimate guitar tabs" in Apple
                                    App Store's or Android Market's
                                    search to find the application.
Good Charlotte - Selt-titled album ('2000)



1. Little things

intro/verse
e-------------------------------------------
b-------------------------------------------
g-6-6-6-6-6---------------------------------
d-6-6-6-6-6--6-6-6-6-5--4-4-4-4-4---7-7-7-7-
a-4-4-4-4-4--6-6-6-6-5--4-4-4-4-4---7-7-7-7-
e------------4-4-4-4-3--2-2-2-2-2---5-5-5-0-
chorus
e-----------------------------------------------------------------
b-----------------------------------------------------------------
g-6-6-6-6-6-6-6-6-------------------------------------------------
d-6-6-6-6-6-6-6-6-6-6-6-6-6-6-6-6-4-4-4-4-4-4-4-4-7-7-7-7-7-7-7-7-
a-4-4-4-4-4-4-4-4-6-6-6-6-6-6-6-6-4-4-4-4-4-4-4-4-7-7-7-7-7-7-7-7-
e-----------------4-4-4-4-4-4-4-4-2-2-2-2-2-2-2-2-5-5-5-5-5-5-5-5-
bridge                                                                       C#5
e-------------------------------------------------------------------------- /
b--------------------------------------------------------------------------/ 
g-------------------------------------------------------------------------/ g-18
d-4-4-4-4-4-7-7-7-4-4-4-4-4-7-7-7-4-4-4-4-4-7-7-7-4-4-4-4-4-7-7-7-8-9-10-11 d-18
a-4-4-4-4-4-7-7-7-4-4-4-4-4-7-7-7-4-4-4-4-4-7-7-7-4-4-4-4-4-7-7-7-8-9-10-11 a-16\
e-2-2-2-2-2-5-5-5-2-2-2-2-2-5-5-5-2-2-2-2-2-5-5-5-2-2-2-2-2-5-5-5-6-7-8--9-      \
the second time you play this you you dont stop at the first C#5 go to the second one:




2. Waldorf Worldwide

-|-----6---x---5----3--------------5-----6---x----5-----3--3-------------------------
-|---3---x---6----4----4------6-------3---x----6-----4-------------------------------
-|-3-------------3----3—3/5---5---3---------------3-----3----------------------------
-|-----------------------------------------------------------------33-33-------------
-|-----------------------------------------------------------------33-33-------------
-|-----------------------------------------------------------------11-11-------------

-|-----------------------------------------------------------------------------------
-|-----------------------------------------------------------------------------------
-|-------1010-8-8-1010-------1010-8-8-1010-------------------------------------------
-|-8-8---1010-8-8-1010--8-8--1010-8-8-1010-8-----------------------------------------
-|-8-8---8-8--6-6--8-8--8-8---8-8-6-6--8-8-8-let ring--------------------------------
-|-6-6------------------6-6----------------6-----------------------------------------
Bring in the verse 
-|-66-44-33-44-66-44-33-44-66-44-33-44-66-44-33-55---------------------------- 
-|-33-55-44-55-33-55-44-55-33-55-44-55-33-55-44-55---------------------------- 
-|-33-44-33-44-33-44-33-44-33-44-33-44-33-44-33-44---------------------------- 
-|---------------------------------------------------------------------------- 
-|----------------------------------------------------------------------------
-|----------------------------------------------------------------------------
Chorus
-|-----------------------------------------------------------------------------------
-|-----------------------------------------------------------------------------------
-|-------1010-8-8-1010-------1010-8-8-1010-------------------------------------------
-|-8-8---1010-8-8-1010--8-8--1010-8-8-1010------------------------------------------x2
-|-8-8---8-8--6-6--8-8--8-8---8-8-6-6--8-8-------------------------------------------
-|-6-6------------------6-6----------------------------------------------------------
Verse
-|-----6------5-------3------5-------6------5----------------------------------------
-|---3---3-6---6---4---4-6---6---3---3-6---6-----------------------------------------
-|-3--------------3---------------3--------------------------------------------------
-|-----------------------------------------------------------------------------------
-|-----------------------------------------------------------------------------------
-|-----------------------------------------------------------------------------------

-|-66-44-33-44-66-44-33-44-66-44-33-44-66-44-3---------------------------------- 
-|-33-55-44-55-33-55-44-55-33-55-44-55-33-55-4---------------------------------- 
-|-33-44-33-44-33-44-33-44-33-44-33-44-33-44-3---------------------------------- 
-|------------------------------------------------------------------------------
-|------------------------------------------------------------------------------
-|------------------------------------------------------------------------------

-|-----------------------------------------------------------------------------------
-|-----------------------------------------------------------------------------------
-|-------1010-8-8-1010-------1010-8-8-1010-------------------------------------------
-|-8-8---1010-8-8-1010--8-8--1010-8-8-1010-----------------------------------------x2
-|-8-8---8-8--6-6--8-8--8-8---8-8--6-6-8-8-------------------------------------------
-|-6-6------------------6-6----------------------------------------------------------


-|-----------------------------------------------------------------------------------
-|-----------------------------------------------------------------------------------
-|-8-8-8-8-8-8-8-8-1010101010101010--------------------------------------------------
-|-8-8-8-8-8-8-8-8-1010101010101010-8-6-5--------------------------------------------
-|-6-6-6-6-6-6-6-6-8-8-8-8-8-8-8-8--8-6-5--------------------------------------------
-|----------------------------------6-4-3--------------------------------------------

-|-----------------------------------------------------------------------------------
-|-----------------------------------------------------------------------------------
-|-8-8-8-8-8-8-8-8-1010101010101010-----8-10-----------------------------------------
-|-8-8-8-8-8-8-8-8-1010101010101010-8-5-8-10-----------------------------------------
-|-6-6-6-6-6-6-6-6-8-8-8-8-8-8-8-8--8-5-6-8------------------------------------------
-|----------------------------------6-3----------------------------------------------

-|-----------------------------------------------------------------------------------
-|-----------------------------------------------------------------------------------
-|-------1010-8-8-1010-------1010-8-8-1010------1010---------------------------------
-|-8-8---1010-8-8-1010--8-8--1010-8-8-1010-8-8--1010---------------------------------
-|-8-8---8-8--6-6--8-8--8-8--8-8--6-6-8-8--8-8---8-8---------------------------------
-|-6-6------------------6-6----------------6-6---------------------------------------

-|-----------------------------------------------------------------------------------
-|-----------------------------------------------------------------------------------
-|------1010-88-1010-----1010-88-1010------------------------------------------------
-|-88---1010-88-1010--88-1010-88-1010------------------------------------------------
-|-88---8-8--66--8-8--88-8-8--66-8-8-------------------------------------------------
-|-66-----------------66-------------------------------------------------------------

-|-------------------------------------------------------------------6---------------
-|------------------------------------------------------------------6----------------
-|-------1010-8-8-1010-------1010-8-8-1010-------------------------7-----------------
-|-8-8---1010-8-8-1010--8-8--1010-8-8-1010----8-----8-----8-------8------------------
-|-8-8---8-8--6-6--8-8--8-8--8-8--6-6-8-8-----8-----8-----8------8-------------------
-|-6-6------------------6-6-------------------6-----6-----6-----6--------------------






3. Motivation Proclamation

Verse x 4 (clean)
e|-3--3--3-3-3--------3-3-3---------------------|
B|-3--3--3-3-3--3--3--3-3-3---------------------|
G|-0--0--0-0-0--0--0--0-0-0---------------------|
D|-0--0--2-2-2--4--4--2-2-2---------------------|
A|-2--2--3-3-3--2--2--3-3-3---------------------|
E|-3--3-----------------------------------------|
Pre Chorus x 1 (clean)
e|-2-2-2-2-2-2--3-3-3-3-3-3--0-0-0-0-0-0--------|
B|-3-3-3-3-3-3--3-3-3-3-3-3--1-1-1-1-1-1--------|
G|-2-2-2-2-2-2--0-0-0-0-0-0--2-2-2-2-2-2--------|
D|--------------2-2-2-2-2-2--2-2-2-2-2-2--------|
A|--------------3-3-3-3-3-3--0-0-0-0-0-0--------|
E|----------------------------------------------|

e|-2-2-2-2-2-2--3-3-3-3-3-3--0-0-0-0-0-0--------|
B|-3-3-3-3-3-3--3-3-3-3-3-3--1-1-1-1-1-1--------|
G|-2-2-2-2-2-2--0-0-0-0-0-0--2-2-2-2-2-2--------|
D|--------------2-2-2-2-2-2--2-2-2-2-2-2--------|
A|--------------3-3-3-3-3-3--0-0-0-0-0-0--------|
E|----------------------------------------------|

e|-2-2-2-2-2-2-2-2-2-2-2-2-2-2-2-2--------------|
B|-3-3-3-3-3-3-3-3-3-3-3-3-3-3-3-3--------------|
G|-2-2-2-2-2-2-2-2-2-2-2-2-2-2-2-2--------------|
D|-0-0-0-0-0-0-0-0-0-0-0-0-0-0-0-0--------------|
A|----------------------------------------------|
E|----------------------------------------------|
Chorus x 2 (distortion)
e|----------------------------------------------|
B|----------------------------------------------|
G|----------5-5-5--7-7-7--5-5-5-4-4-0-----------|
D|-5-5-5--5-5-5-5--7-7-7--5-5-5-4-4-0-----------|
A|-5-5-5--5-3-3-5--5-5-5--3-3-3-2-2-0-----------|
E|-3-3-3--3-------------------------------------|
Post Chorus x 2 (distortion)
e|----------------------------------------------|
B|----------------------------------------------|
G|---------5-5-5-5-7-7-7-7-5-5-5-5--------------|
D|-5-5-5-5-5-5-5-5-7-7-7-7-5-5-5-5--------------|
A|-5-5-5-5-3-3-3-3-5-5-5-5-3-3-3-3--------------|
E|-3-3-3-3--------------------------------------|
Verse x 4 (clean)
e|-3--3--3-3-3--------3-3-3---------------------|
B|-3--3--3-3-3--3--3--3-3-3---------------------|
G|-0--0--0-0-0--0--0--0-0-0---------------------|
D|-0--0--2-2-2--4--4--2-2-2---------------------|
A|-2--2--3-3-3--2--2--3-3-3---------------------|
E|-3--3-----------------------------------------|
Pre Chorus x 1 (clean)
Chorus x 2 (distortion)
Post Chorus x 2 (distortion)
Solo (distortion)
e|---------------------------------------------------------------------------| 
B|-------12-------15---------------------------------------------------------| 
G|--------------------------14p12-------------12----12----12h14-12-b14-------| 
D|-12-12----12-12-----12-12----------14-12-14----12--------------------------|
A|---------------------------------------------------------------------------| 
E|---------------------------------------------------------------------------| 

e|---------------------------------------------------------------------------| 
B|---------------------------------------------------------------------------| 
G|------------------------------------------12b------12-12-------12-------12-| 
D|-12-12h14-12-b14-----------------12-12h14-----12h14------12h14----12h14----| 
A|-----------------14-12-14-12~~/--------------------------------------------| 
E|---------------------------------------------------------------------------| 
                                                                               
e|----------------------10-12b--------------------xxxx-------------xxxx------| 
B|-------------------12--------10-----------------xxxx-------------xxxx------| 
G|--------------------------------12--------12-12-xxxx-------12-12-xxxx------| 
D|-------12-------12------------------12h14-------xxxx-12h14-------xxxx------| 
A|-12h14----12h14---------------------------------xxxx-------------xxxx------| 
E|------------------------------------------------xxxx-------------xxxx------| 
 
e|---------------------------------------------------------------------------| 
B|---------------------------------------------------------------------------| 
G|-------12-12-------12-12-15b-----------------------------------------------| 
D|-12h14-------12h14---------------------------------------------------------| 
A|---------------------------------------------------------------------------| 
E|---------------------------------------------------------------------------|
Pre Chorus x 1 (distortion)
e|-2-2-2-2-2-2--3-3-3-3-3-3--0-0-0-0-0-0--------|
B|-3-3-3-3-3-3--3-3-3-3-3-3--1-1-1-1-1-1--------|
G|-2-2-2-2-2-2--0-0-0-0-0-0--2-2-2-2-2-2--------|
D|--------------2-2-2-2-2-2--2-2-2-2-2-2--------|
A|--------------3-3-3-3-3-3--0-0-0-0-0-0--------|
E|----------------------------------------------|

e|-2-2-2-2-2-2-2-2-2-2-2-2-2-2-2-2--------------|
B|-3-3-3-3-3-3-3-3-3-3-3-3-3-3-3-3--------------|
G|-2-2-2-2-2-2-2-2-2-2-2-2-2-2-2-2--------------|
D|-0-0-0-0-0-0-0-0-0-0-0-0-0-0-0-0--------------|
A|----------------------------------------------|
E|----------------------------------------------|
Post Chorus x 4 (distortion)
Finish x 1 (distortion)
e|----------------------------------------------|
B|----------------------------------------------|
G|----------------------------5-5-5-4-4-4-0-----|
D|-5-5-xxxx-5-5-xxxx-5-5-xxxx-5-5-5-4-4-4-0-5~~~|
A|-5-5-xxxx-5-5-xxxx-5-5-xxxx-3-3-3-2-2-2-0-5~~~|
E|-3-3-xxxx-3-3-xxxx-3-3-xxxx---------------3~~~|





4. East coast anthem

Into
0---0--000-0-0 
1---1--111-1-1 
2---2--222-0-0 
2---2--222-0-0 
0---0--000---- 
-------------- repeat a few times 
Verse:  
0---0--000-0-0-------- 
1---1--111-1-1-------- 
2---2--222-0-0-5-5-555 
2---2--222-0-0-5-5-555 
0---0--000-----3-3-333 
---------------------- repeat over and over 
Chorus 
----xx----xx------- 
----xx----xx------- 
----xx555-xx------- 
3-3-xx555-xx5-5-555 
3-3-xx333-xx5-5-555 
1-1-xx----xx3-3-333 
Repeat Intro 
Repeat Verse 
Repeat Chorus  
Solo: 
 Make up your own in the key of C.   
  (The real solo is played w/ octaves mostly) 
Fill/Interlude/Thingy 
Guitar 1:  
(play each chord about 7 times) 
----0--0 
----1--0 
----2--1 
3-5-2--0 
3-5-0--2 
1-3----0 
Repeat Chorus  
Outro (sustain the Am for a good 15 seconds) 
-0-
-1-
-2-
-2-
-0-
---




5. Festival Song

Intro:
e---3-3-3--2-2-2---------------
B---3-3-3--3-3-3---------------
G---2-2-2--2-2-2---------------
D-----------------7-7-7-5-5-5--
A-----------------7-7-7-5-5-5--
E-----------------5-5-5-3-3-3--
Main Riff x7:
e--------------------------------------
B--------------------------------------
G--7--7--7-----------------------------
D--7--7--7--7--7--7--5--5--5--7--7--7--
A--5--5--5--7--7--7--5--5--5--7--7--7--
E-----------5--5--5--3--3--3--5--5--5--
Chorus:
e--------------------------------------------------------------------------
B--------------------------------------------------------------------------
G--7--7--7--7--7--7--7--7--------------------------------------------------
D--7--7--7--7--7--7--7--7--7--7--7--7--7--7--7--7--5--5--5--5--5--5--5--5--
A--5--5--5--5--5--5--5--5--7--7--7--7--7--7--7--7--5--5--5--5--5--5--5--5--
E--------------------------5--5--5--5--5--5--5--5--3--3--3--3--3--3--3--3--

e------------------------------------------------------------------
B------------------------------------------------------------------
G-----------------7-7-7-7-7-7-7-7-----------------4-4-4-4-4-4-4-4--
D-7-7-7-7-7-7-7-7-7-7-7-7-7-7-7-7-7-7-7-7-7-7-7-7-4-4-4-4-4-4-4-4--
A-7-7-7-7-7-7-7-7-5-5-5-5-5-5-5-5-7-7-7-7-7-7-7-7-2-2-2-2-2-2-2-2--
E-5-5-5-5-5-5-5-5-----------------5-5-5-5-5-5-5-5------------------

e--------------------------
B--------------------------
G--5--5--5--5--------------
D--5--5--5--5--7--7--7--7--
A--3--3--3--3--7--7--7--7--
E--------------5--5--5--5--
End Song On:
e-------------------------
B-------------------------
G--5-------5-------5------
D--5---7---5---7---5---5--
A--3---7---3---7---3---5--
E------5-------5-------3--




6. Complicated

Verse x 14
e|-0-0--X-X-1--1-1-1--1-1----------------------------------|
B|-1-1--X-X-1--1-1-1--1-1----------------------------------|
G|-0-0--X-X-2--2-2-2--2-2----------------------------------|
D|-2-2--X-X-3--3-3-3--3-3----------------------------------|
A|-3-3--X-X-3--3-3-3--3-3----------------------------------|
E|----------1--1-1-1--1-1----------------------------------|
Chorus x 1
e|---------------------------------------------------------|
B|---------------------------------------------------------|
G|-5-5-5-5-------------------------------------------------|
D|-5-5-5-5-5-5-5-5-7-7-7-7-2-2-2-2-7-7-7-7-2-2-2-2-5-5-5-5-|
A|-3-3-3-3-5-5-5-5-7-7-7-7-2-2-2-2-7-7-7-7-2-2-2-2-5-5-5-5-|
E|---------3-3-3-3-5-5-5-5-0-0-0-0-5-5-5-5-0-0-0-0-3-3-3-3-|
Verse x 8
Chorus x 1
Verse x 4
Bridge x 5
e|---------------------------------------------------------|
B|---------------------------------------------------------|
G|-5-5-----------------------------------------------------|
D|-5-5-----5-5-----7-7-----5-5-----------------------------|
A|-3-3-----5-5-----7-7-----5-5-----------------------------|
E|---------3-3-----5-5-----3-3-----------------------------|
Chorus x 2
Verse x 3




7. Seasons

Intro (clean) x 3
e|-0-0-00-00-0-3-3-33-33-3-0-0-00-00-0-0-0------------3-33-3-----------------|
B|-1-1-11-11-1-3-3-33-33-3-1-1-11-11-1-1-1------------3-33-3-----------------|
G|-0-0-00-00-0-0-0-00-00-0-2-2-22-22-2-0-0------------0-00-0-----------------|
D|-2-2-22-22-2-0-0-00-00-0-3-3-33-33-3-2-2--0h2p0-----0-00-0-----------------|
A|-3-3-33-33-3-2-2-22-22-2-------------3-3------------2-22-2-----------------|
E|-------------3-3-33-33-3----------------------------3-33-3-----------------|
Verse 1 (clean) x 2
e|-0-0-00-00-0-3-3-33-33-3-0-0-00-00-0-0-00-0-3-33-3-------------------------|
B|-1-1-11-11-1-3-3-33-33-3-1-1-11-11-1-1-11-1-3-33-3-------------------------|
G|-0-0-00-00-0-0-0-00-00-0-2-2-22-22-2-0-00-0-0-00-0-------------------------|
D|-2-2-22-22-2-0-0-00-00-0-3-3-33-33-3-2-22-2-0-00-0-------------------------|
A|-3-3-33-33-3-2-2-22-22-2-------------3-33-3-2-22-2-------------------------|
E|-------------3-3-33-33-3--------------------3-33-3-------------------------|
Verse 2 (distortion) x 2
e|---------------------------------------------------------------------------|
B|---------------------------------------------------------------------------|
G|-5-5555555------------------------55-4b------------------------------------|
D|-5-5555555--5-5555555--3-3333333--55----5-55-5-----------------------------|
A|-3-3333333--5-5555555--3-3333333--35----5-55-5-----------------------------|
E|------------3-3333333--1-1111111--------3-33-3-----------------------------|
     *******    *******    ******* 
Pre Chorus (distortion) x 1
e|---------------------------------------------------------------------------|
B|---------------------------------------------------------------------------|
G|---5~----------5~----------5~----------------------------------------------|
D|---5~----5~----5~----5~----5~----5~----3-3-3-3-3-3-3-3---------------------|
A|---3~----5~----3~----5~----3~----5~----3-3-3-3-3-3-3-3---------------------|
E|---------3~----------3~----------3~----1-1-1-1-1-1-1-1---------------------|
Chorus (distortion) x 2
e|---------------------------------------------------------------------------|
B|---------------------------------------------------------------------------|
G|-55555555------------------------55-4b-------------------------------------|
D|-55555555--55555555--333**33333--55----5-55-5------------------------------|
A|-33333333--55555555--333**33333--35----5-55-5------------------------------|
E|-----------33333333--111**11133--------3-33-3------------------------------|
Post Chorus (distortion) x 1
e|---------------------------------------------------------------------------|
B|---------------------------------------------------------------------------|
G|---5~----------5~----------------------------------------------------------|
D|---5~----5~----5~----5~--3-------------------------------------------------|
A|---3~----5~----3~----5~--3-------------------------------------------------|
E|---------3~----------3~--1-------------------------------------------------|



Verse 3 (distortion) x 1
e|---------------------------------------------------------------------------|
B|---------------------------------------------------------------------------|
G|-5-5555555------------------------55-55------------------------------------|
D|-5-5555555--5-5555555--3-3333333--55-55--5-55-5----------------------------|
A|-3-3333333--5-5555555--3-3333333--35-33--5-55-5----------------------------|
E|------------3-3333333--1-1111111---------3-33-3----------------------------|
     *******    *******    *******
Finish (distortion) x 1
e|---------------------------------------------------------------------------|
B|---------------------------------------------------------------------------|
G|-55555555------------------------55-4b-------------------------------------|
D|-55555555--55555555--333**33333--55----5-55-5------------------------------|
A|-33333333--55555555--333**33333--35----5-55-5------------------------------|
E|-----------33333333--111**11133--------3-33-3------------------------------|

e|---------------------------------------------------------------------------|
B|---------------------------------------------------------------------------|
G|-55555555------------------------55-4b-------------------------------------|
D|-55555555--55555555--333**33333--55----5-55-5------------------------------|
A|-33333333--55555555--333**33333--35----5-55-5------------------------------|
E|-----------33333333--111**11133--------3-33-3------------------------------|

e|---------------------------------------------------------------------------|
B|---------------------------------------------------------------------------|
G|-55555555------------------------55-55-------------------------------------|
D|-55555555--55555555--333**33333--55-55--5-55-5-----------------------------|
A|-33333333--55555555--333**33333--35-33--5-55-5-----------------------------|
E|-----------33333333--111**11111---------3-33-3-----------------------------|

e|---------------------------------------------------------------------------|
B|---------------------------------------------------------------------------|
G|-55555555------------------------55-55-------------------------------------|
D|-55555555--55555555--333**33333--55-55--5-55-5-----------------------------|
A|-33333333--55555555--333**33333--35-33--5-55-5-----------------------------|
E|-----------33333333--111**11111---------3-33-3-----------------------------|





8. I don't wanna stop

Intro/Chorus x 2
e|-----------------------------------------------|
B|-----------------------------------------------|
G|-----------------------------------------------|
D|--5-5-555--9-9-999--10-10-101010-/12-----------|
A|--5-5-555--9-9-999--10-10-101010-/12-----------|
E|--3-3-333--7-7-777--8--8--8-8-8--/10-----------|
Bass Verse
Pre Chorus x 2
e|-----------------------------------------------|
B|-----------------------------------------------|
G|--5-5-55-/7-7-77----------4-4-44---------------|
D|--5-5-55-/7-7-77--5-5-55--4-4-44---------------|
A|--3-3-33-/5-5-55--5-5-55--2-2-22---------------|
E|------------------3-3-33-----------------------|
Chorus x 2
Bass Verse
Pre Chorus x 2
Chorus x 8
Pre Chorus x 1
Finish x 1
e|-----------------------------------------------|
B|-----------------------------------------------|
G|--5-5-55-/7-7-77----------4-4-44-44444444444---|
D|--5-5-55-/7-7-77--5-5-55--4-4-44-44444444444---|
A|--3-3-33-/5-5-55--5-5-55--2-2-22-22222222222---|
E|------------------3-3-33-----------------------|




9. I heard you

Intro x 2
e|---------------------------------------------------------------------------|
B|-5-4-5-4-5-5-4-5-4-5-4-5-4-5-5-4-5-4-5-4-5-4-5-5-4-5-4-5-4-7-5-------------|
G|---------------------------------------------------------------------------|
D|---------------------------------------------------------------------------|
A|---------------------------------------------------------------------------|
E|---------------------------------------------------------------------------|

Bass Verse  
Chorus x 2
e|---------------------------------------------------------------------------|
B|---------------------------------------------------------------------------|
G|-5-5-5-5---------99999999-1010101010101010-1212121212121212----------------|
D|-5-5-5-5-5-5-5-5-99999999-1010101010101010-1212121212121212----------------|
A|-3-3-3-3-5-5-5-5-77777777-8-8-8-8-8-8-8-8--1010101010101010----------------|
E|---------3-3-3-3-----------------------------------------------------------|
Intro x 1
Bass Verse
Chorus x 2
Bridge
e|---------------------------------------------------------------------------|
B|---------------------------------------------------------------------------|
G|-5--------9--------10--------12--------5--------9--------10--------12------|
D|-5--------9--------10--------12--------5--------9--------10--------12------|
A|-3--------7--------8---------10--------3--------7--------8---------10------|
E|---------------------------------------------------------------------------|

e|---------------------------------------------------------------------------|
B|---------------------------------------------------------------------------|
G|-55555555-99999999-1010101010101010-1212121212121212-----------------------|
D|-55555555-99999999-1010101010101010-1212121212121212-----------------------|
A|-33333333-77777777-8-8-8-8-8-8-8-8--1010101010101010-----------------------|
E|---------------------------------------------------------------------------|
    *******  *******   * * * * * * * 
Chorus x 2
Intro x 2




10. The click

Intro (guitar 1)
-----------------------------------------|-----------------
-----------------------------------------|-----------------
-----------------------------------------|-----------------
-0-2-4-4-2-0-2-4-4-2-0-2-4-4-2-4-5-4-4-2-|-----------------
-----------------------------------------|-5~--------------
-----------------------------------------|-----------------
Verse 1
-----------------------------------------------------------
-----------------------------------------------------------
-77777777--------------------------------------------------
-77777777-77777777-555555555555555555----------------------
-55555555-77777777-555555555555555555----------------------
----------55555555-333333333333333333----------------------
Verse 2
-----------------------------------------------------------
-----------------------------------------------------------
-777777777777----------------------------------------------
-777777777777-77777777777-999999999999-555555555555555-----
-555555555555-77777777777-999999999999-555555555555555-----
--------------55555555555-777777777777-333333333333333-----
Verse 2 Palm Muted Riff
-----------------------------------------------------------
-----------------------------------------------------------
-7-7-9-11-11-9-9-12-12-12-11-11-9--------------------------
-----------------------------------------------------------
-----------------------------------------------------------
-----------------------------------------------------------
Chorus
-----------------------------------------------------------
-----------------------------------------------------------
-77777777------------------------77777777------------------
-77777777-77777777-999999-555555-77777777-77777777-55555555
-55555555-77777777-999999-555555-55555555-77777777-55555555
----------55555555-777777-333333----------55555555-33333333
Bridge
-------|-----------------|---------------------------------
-------|-----------------|---------------------------------
-7-----|-12-11---9-7-9-7-|-777777777-----------------------
-7-7-5-|-x---x---x-x-x-x-|-777777777-7777777777-555555555--
-5-7-5-|-10--9---7—5/7\5-|-555555555-7777777777-555555555--
---5-3-|-----------------|-----------5555555555-333333333--
Order-
Intro
Verse 1 (palm mute)
Chorus
Intro 
Verse 2 (palm mute), also play palm muted riff after 2x
Chorus
Bridge
Chorus (with a couple rakes)
Intro
End on this:
-----------------------------------------------------------
-----------------------------------------------------------
-11-12--14-------------------------------------------------
-x---x---x-------------------------------------------------
-9--10--12-------------------------------------------------
-----------------------------------------------------------





11. Walk by

Main Riff
e-|--Repeat 3x-------|---------1x------------|
B-|------------------|-----------------------|
G-|---5--------------|---5---5---5-----------|
D-|-----5-3--3-3h5p3-|---5---5---5-----------|
A-|-3----------------|-3-3---3---3-----------|
E-|------------------|--[Heavily Palm Muted]-|
Two note verse riff:
B----13-
G-12----
Chorus: C5, A5, G5, F5
Bridge: B5, C5, G5, F5
Solo
e|-------3x-----------|-------------------------
B|--------------------|-------------------------
G|.--5---------------.|-55--77-7--77--99-99-9---
D|.----5-3--3-3h5p3h5.|-xx--xx-x--xx--xx-xx-x---
A|-3------------------|-33--55-5--55--77-77-7---
E|--------------------|-------------------------

e|-----------------|-------------------------
B|-----------------|-10/12-15-13-12-13~-12~--
G|.--5------------.|-------------------------
D|.----5-3-3h5p3h5.|-------------------------
A|-3---------------|-------------------------
E|-----------------|-------------------------




12. Let me go

Chorus x 4
e|--------------------------------------------------------|
B|--------------------------------------------------------|
G|--5-5---------2-2---------------------------------------|
D|--5-5--3-3-3--2-2--5-5-5-5------------------------------|
A|--3-3--3-3-3--0-0--5-5-5-5------------------------------|
E|-------1-1-1-------3-3-3-3------------------------------|
Mid-Verse
e|--------------------------------------------------------|
B|--------------------------------------------------------|
G|--8-8-8-8-8-8-8-8-8-8--8-8-8-8-8-8-8-8-8-8-8-8--5-------|
D|--------------------------------------------------------|
A|--------------------------------------------------------|
E|--------------------------------------------------------|
Verse x 4
e|--------------------------------------------------------|
B|--------------------------------------------------------|
G|--5-5--------**-2-2-------------------------------------|
D|--5-5--3-3-3-**-2-2--5-5-5-5----------------------------|
A|--3-3--3-3-3-**-0-0--5-5-5-5----------------------------|
E|-------1-1-1---------3-3-3-3----------------------------|
Chorus x 3
Post Chorus x 1
e|--------------------------------------------------------|
B|--------------------------------------------------------|
G|--5-5-5-5-5-5-5-5--9-9-9-9-9-9-9-9-10-10-10-10-/11-11---|
D|--5-5-5-5-5-5-5-5--9-9-9-9-9-9-9-9-10-10-10-10-/11-11---|
A|--3-3-3-3-3-3-3-3--7-7-7-7-7-7-7-7--8--8--8--8-/-9--9---|
E|--------------------------------------------------------|
Chorus x 2,
Mid Verse x 1,
Verse x 4,
Chorus x 3,
Post Chorus x 1,
Bridge (rest),
Chorus x 11,
Post Chorus x 1




13. Screamer
          A        B       E        G#      
E|--------0--------0--------0--------4--------|
B|--------0--------0--------0--------4--------|
G|--------6--------8--------1--------5--------|
D|--------7--------9--------2--------6--------|
A|--------7--------9--------2--------6--------|
E|--------5--------7--------0--------4--------|

Intro:
E|------------------------17-----16-----|
B|--------------------------------------|
G|----------------16--------------------|
D|--------14----------------------------|
A|--------------------------------------|
E|--------------------------------------|
Verse:
E|----------------------------4---------------------------------------5p4------------------|
B|------------5---------------------------------------5----------------------5-------------|
G|----4--------------4-----------------------4---------------4----------------------4------|
D|-----------------------------------------------------------------------------------------|
A|-----------------------------------------------------------------------------------------|
E|-----------------------------------------------------------------------------------------|
Play that riff 3x on clean.  In the second verse, guitar 2 plays the chorus pattern on clean.
Prechorus:
E|----5----------------------5------------------------7----------------------7----------|
B|------------5------------------------5----------------------5----------------------7--|
G|--------------------------------------------------------------------------------------|
D|--------------------------------------------------------------------------------------|
A|--------------------------------------------------------------------------------------|
E|--------------------------------------------------------------------------------------|
Play that twice on clean, then, on distortion, with the same rhythm as the intro:
E
B
A
B
On the second Prechorus, play this pattern through twice.
Chorus:
E
B
A
B
Play that pattern 6x with the same rhythm as the intro with the intro riff on the last
two times all on distortion.
Bridge: The rhythm is just 8 straight eighth notes per chord (on distortion).
A
B
E
G#
A
B (2x)
Solo:
E|---------------------------------------------------------------------------------------
B|---------------------------------------------------------------------------------------
G|------------------------------------------------------------------------------------16-
D|---------------------------------------------------------------------------------------
A|--------------------14------------14h16p14----------------------------------14---------
E|-19-------14h16--------16------------------------16------14-------14h16------16-------
Ending: intro
Order:
Intro
Verse
1st Prechorus
Chorus
Verse with both guitars
2nd Prechorus
Chorus
Bridge
Solo





14. Change

Intro x 1
e|-3-----3------33-3-----3---------------------------------------------------|
B|-3-----3------33-3-----3---------------------------------------------------|
G|-0-----0------00-0-----0---------------------------------------------------|
D|-2-----0------00-2-----0---------------------------------------------------|
A|-3-----2------22-3-----2---------------------------------------------------|
E|-------3------33-------3---------------------------------------------------|
Verse x 1
e|-3-3-33-33-3--3-3-33-33-3--3-3-33-33-3--3-3-33-33-3------------------------|
B|-3-3-33-33-3--3-3-33-33-3--3-3-33-33-3--3-3-33-33-3------------------------|
G|-0-0-00-00-0--0-0-00-00-0--0-0-00-00-0--0-0-00-00-0------------------------|
D|-2-2-22-22-2--0-0-00-00-0--2-2-22-22-2--0-0-00-00-0------------------------|
A|-3-3-33-33-3--2-2-22-22-2--3-3-33-33-3--2-2-22-22-2------------------------|
E|--------------3-3-33-33-3---------------3-3-33-33-3------------------------|
Riff x 2
e|------0--------------|
B|---------1-----------|
G|---3-------2---------|
D|-2---2-------3-------|
A|-3-------------2-----|
E|---------------------|
Verse x 3
Chorus x 4
e|-3-33-3-33-3--3-33-3--3-33-3-------------------|
B|-3-33-3-33-3--3-33-3--3-33-3-------------------|
G|-0-00-0-00-0--0-00-0--2-22-2-------------------|
D|-2-22-2-22-2--0-00-0--0-00-0-------------------|
A|-3-33-3-33-3--2-22-2---------------------------|
E|--------------3-33-3---------------------------|
Riff x 1
Verse x 3
Chorus x 8

Thats it all think its all near enough correct, if not it's 99.99%
comments
print report bad tab
14 comments total. Showing first comments.
0 reply
adamsmith wrote on March 4 2004, 12:00 am

***

0 reply
imtehroxz0rz wrote on April 11 2004, 12:00 am

you're a homo

0 reply
simpleplanlover wrote on April 13 2004, 12:00 am

will some1 please e-mail me and tell me how to read this exactly... cuz i just started playing plz HELP!

I want to post or [tab]
guest
You may want to rate the tab now too:
select rating
Please do not post tabs as comments. Select "correction" instead!