Oops, an error
Loading. Please wait.

The Chronicles Of Life And Death Tab

ver1
ver1

Album

Solo

Interactive

More versions @911Tabs.com
9,423 views 3 this week
1 commentread comment
1 2 3 4 5
not so good
x 5
Autoscroll
+/-
esc
set tempo
stop
Contributor
Hey! There's an official Ultimate Guitar app which is ideal
for learning songs when you're away from computer. Get the app
WARNING: You are trying to view
                                    content from Ultimate-Guitar.com
                                    in an unauthorized application,
                                    which is prohibited.

                                    Please use an official Ultimate
                                    Guitar Tabs application for iPhone,
                                    iPad or Android to access legitimate
                                    chords, guitar, bass, and drum tabs
                                    from Ultimate-Guitar.com database.

                                    Type "ultimate guitar tabs" in Apple
                                    App Store's or Android Market's
                                    search to find the application.
-------------------------------------------------------------------------------      
Good Charlotte - The Chronicle Of Life And Death FULL ALBUM
-------------------------------------------------------------------------------
Compiled/Tabbed by: Jordy
Email: thesongwriter@gmail.com

Here's a full tab of the awesome newest album by Good Charlotte!  I did a few of these
tabs, and I compiled the rest from various tabs.  All rights go to each of the tabbers.
 Enjoy!


Artist: Good Charlotte
Song: The Chronicles Of Life And Death
Album: The Chronicles Of Life And Death
Tabbed by: Jordy (thesongwriter@gmail.com)

    F#  C   B  G#   E   C#
e|---------------------------------------|
B|---------------------------------------|
G|------5---4-----------6----------------|
D|--4---5---4---6---2---6----------------|
A|--4---3---2---6---2---4----------------|
E|--2-----------4---0--------------------|

Verse 1:

F#          C
You come in cold
                  B
You're covered in blood
               G#
They're all so happy you've arrived
F#                   C                         B 
The doctor cuts your cord he hands you to your mum
              G#
Just sets you free into this life
   F#            C
And where do you go
        B 
With no destination
   G# 
No maps to guide you
F#           C                   B 
Wouldn't you know that it doesn't matter
   G#             E
We all end up the same

Chorus:

B             C#            F#                 E
These are the chronicles of life and death and everything between
B             C#             F#              E   
These are the stories of our lives as fictional as they may seem
B           C#                  F#      E 
You come in this world, and you go out just the same
B                  C#               F# 
Today could be the best day of your life

Repeat Verse:

And money talks, in this world that's what idiots will say
but you'll find out, that this world is just an idiot's parade
Before you go
You've got some questions that you want answered
But now your old, cold, covered in blood
And right back to where you started from

Repeat Chorus


Interlude 

E B C# F#
E B C# F#

B             C#            F#                 E
These are the chronicles of life and death and everything between
B             C#             F#              E   
These are the stories of our lives as fictional as they may seem
B           C#                  F#     E 
You come in this world, and you go out just the same
B                  C#
Today could be the best day of
B                  C# 
Today could be the worst day of 
B                  C#               F#  
Today could be the last day of your life 
C      B
          it's your life
C#    F#
           your life


****************************************************************************


Band/artist: Good Charlotte
Album: The chronicles of life and death
Song: Walk Away (Maybe)
Year: 2004
Guitarists: Benji Madden + Billy Martin

~   =   Let ring

INTRO (Rhythm guitar):
e---------------------|
b---------------------|
g---------------------|
d--3-3--4-4--8-8--6-6-|
a--3-3--4-4--8-8--6-6-|
e--1-1--2-2--6-6--4-4-|

INTRO (Lead guitar)
e-----------|
b-----------|
g--10-8-6-6-|
d-----------|
a-----------|
e-----------|

INTRO PART 2 (Rhythm guitar):
e-----------------------------|
b-----------------------------|
g-----------------------------|
d--3-3-3--4-4-4--8-8-8--6-6-6-|
a--3-3-3--4-4-4--8-8-8--6-6-6-|
e--1-1-1--2-2-2--6-6-6--4-4-4-|

VERSE (Rhythm guitar):
e-------------------------------------------------------------------|
b-------------------------------------------------------------------|
g-------------------------------------------------------------------|
d--8-8-8-8-8-8-8-8-8-8-8-8-8-8-8-8--6-6-6-6-6-6-6-6-6-6-6-6-6-6-6-6-|
a--8-8-8-8-8-8-8-8-8-8-8-8-8-8-8-8--6-6-6-6-6-6-6-6-6-6-6-6-6-6-6-6-|
e--6-6-6-6-6-6-6-6-6-6-6-6-6-6-6-6--4-4-4-4-4-4-4-4-4-4-4-4-4-4-4-4-|
PM.................................................................

e-------------------------------------------------------------------|
b-------------------------------------------------------------------|
g-------------------------------------------------------------------|
d--4-4-4-4-4-4-4-4-4-4-4-4-4-4-4-4--8-8-8-8-8-8-8-8-8-8-8-8-8-8-8-8-|
a--4-4-4-4-4-4-4-4-4-4-4-4-4-4-4-4--8-8-8-8-8-8-8-8-8-8-8-8-8-8-8-8-|
e--2-2-2-2-2-2-2-2-2-2-2-2-2-2-2-2--6-6-6-6-6-6-6-6-6-6-6-6-6-6-6-6-|
PM.................................................................

VERSE (Lead guitar)
e----
b----
g--6- just keep playing this note
d----
a----
e----

VERSE PART 2 (Rhythm guitar):
e-----------------------------|
b-----------------------------|
g-----------------------------|
d--8~------6~------4~------8~-|
a--8~------6~------4~------8~-|
e--6~------4~------2~------6~-|

VERSE PART 2 (Lead guitar):
e------------------------------------|
b------------------------------------|
g--6-5-3~---5-6-1~---3-5------6-5-3~-|
d------------------------4~----------|
a------------------------------------|
e------------------------------------|

PRE-CHORUS (Both guitars):
e---------------------|
b---------------------|
g---------------------|
d--8-8--4-4--8-8--4-4-|
a--8-8--4-4--8-8--4-4-|
e--6-6--2-2--6-6--2-2-|

CHORUS (Both guitars, I think):
e-------------------------------------------------------------------|
b-------------------------------------------------------------------|
g--6-6-6-6-6-6-6-6-6-6-6-6-6-6-6-6----------------------------------|
d--6-6-6-6-6-6-6-6-6-6-6-6-6-6-6-6--4-4-4-4-4-4-4-4-4-4-4-4-4-4-4-4-|
a--4-4-4-4-4-4-4-4-4-4-4-4-4-4-4-4--4-4-4-4-4-4-4-4-4-4-4-4-4-4-4-4-|
e-----------------------------------2-2-2-2-2-2-2-2-2-2-2-2-2-2-2-2-|

e----------------------------------|
b----------------------------------|
g----------------------------------|
d--8-8-8-8-8-8-8-8-8-8-8-8-8-8-8-8-| It sounds like the lead fingerpicks in
a--8-8-8-8-8-8-8-8-8-8-8-8-8-8-8-8-| chorus, but I'm not too sure
e--6-6-6-6-6-6-6-6-6-6-6-6-6-6-6-6-|

Then play everything else again, but in the verse part 1 the rhythm guitar plays the 
a lot faster.

BREAK:
e----------|
b----------|
g----------|
d--4~---3~-|
a--4~---3~-|
e--2~---1~-|

BRIDGE (both guitars)
e-------------------------------------------------------------------|
b-------------------------------------------------------------------|
g-------------------------------------------------------------------|
d--4-4-4-4-4-4-4-4-4-4-4-4-4-4-4-4--3-3-3-3-3-3-3-3-3-3-3-3-3-3-3-3-|
a--4-4-4-4-4-4-4-4-4-4-4-4-4-4-4-4--3-3-3-3-3-3-3-3-3-3-3-3-3-3-3-3-|
e--2-2-2-2-2-2-2-2-2-2-2-2-2-2-2-2--1-1-1-1-1-1-1-1-1-1-1-1-1-1-1-1-|

e---------------------|
b---------------------|
g---------------------|
d--4--4--4~--3--3--3--| Play the bridge twice, but just this bit once.
a--4--4--4~--3--3--3~-|
e--2--2--2~--1--1--1~-|

Then play the verse again, but without the lead guitar, and play much quieter.

OUTRO:

e----------------------|
b----------------------|
g----------------------|
d--3-3--4-4--8-8--6-6~-|
a--3-3--4-4--8-8--6-6~-|
e--1-1--2-2--6-6--4-4~-|

And that's it. I think that's how it sounds.


*****************************************************************************


Song Title: S.O.S
Artist:     Good Charlotte
Tabbed By:  F.Miñana(Kiko)
Key:
.  = Palm Mute
-> = Continued
x  = Don't play string (Mute)
~  = Let ring for a short time
~~ = Let ring for a long time
*t)= Tremolo Picking 

This is one of my favourite songs on this album and it is mad to play. The solo took a
 while to figure out and I'm 100% sure it is perfect. Enjoy! Gt.1 & 2 play the same 
thing all the way through except the verse and solo which only Gt.1 (Billy) plays.


Intro (Acoustic (0:00)
e-00-000--00-000--00-000-00-000-|
B-00-000--00-000--00-000-00-000-|
G-xx-xxx--11-111--44-444-44-444-|
D-66-666--22-222--44-444-44-444-|
A-66-666--22-222--22-222-22-222-|
E-44-444--00-000--xx-xxx-xx-xxx-| x4

Verse (0:24)
e---------------------------------------------------------------------|
B---------------------------------------------------------------------|
G---------------------------------------------------------------------|
D-2-22-22-2-22-22--4-44-44-4-44-44--6-66-66-6-66-66--9-99-99--9-99-99-|
A-2-22-22-2-22-22--4-44-44-4-44-44--6-66-66-6-66-66--9-99-99--9-99-99-|
E-0-00-00-0-00-00--2-22-22-2-22-22--4-44-44-4-44-44--7-77-77--6-66-66-| x2
  . .. .. . .. ..  . .. .. . .. ..  . .. .. . .. ..  . .. ..  . .. ..

Pre-Chorus (0:45)
e---------------------------------------------|
B---------------------------------------------|
G---------------------------------------------|
D-2-22-22-2-22-22--6~~--6~~--9-99-99--9-99-99-|
A-2-22-22-2-22-22--6~~--6~~--9-99-99--9-99-99-|
E-0-00-00-0-00-00--3~~--4~~--7-77-77--6-66-66-| x1
  . .. .. . .. ..

Chorus (0:57)
e---------------------|
B---------------------|
G-----------4444-4444-|
D-6666-2222-4444-4444-|
A-6666-2222-2222-2222-|
E-4444-0000-----------| x4

Verse x2 (1:18)
Pre-chorus (1:40)
Chorus x4 (1:51)

Let ring (2:13)
e-----|
B-----|
G-----|
D-2~~-|
A-2~~-|
E-0~~-|

Interlude (2:17)
e-----------------------------------------------------------------------------------------|
B-----------------------------------------------------------------------------------------|
G-----------------------------------------------------------------------------------------|
D-666-666-666-666-444-444-222-222-666-666-666-666-444-444-222-222-666-666-222-222-999-999-|
A-666-666-666-666-444-444-222-222-666-666-666-666-444-444-222-222-666-666-222-222-999-999-|
E-333-333-444-444-222-222-000-000-333-333-444-444-222-222-000-000-333-333-444-444-777-777-|

Solo (2:47)
(Chorus played by Gt.2)
e------------------------------------------------------------->
B---------------------7-5--------------------------7-5-4-5-4~->
G---88-8-----8-6---44-----8-6-----88-8-----8-6--44------------>
D-99-----9-9-----------------9-6-------9-9-------------------->
A------------------------------------------------------------->
E------------------------------------------------------------->

Solo Cont... (2:58)
e-----------------------------2-----77-7-6-4-----77-7-6-6--{9999}--{7777}--7-6-4-----------|
B-7p5p0-7p5p0-4p2p0-4p2p0-------444----------7-7---------------------------------7-4h5-7~~-|
G-------------------------3h4--------------------------------------------------------------|
D------------------------------------------------------------------------------------------|
A------------------------------------------------------------------------------------------|
E------------------------------------------------------------------------------------------|

Acoustic Ending x4 (Same as Intro) (3:09)

       Well that's about it. Check out my tabs for The Chronicles of Life and Death, 
Walk Away and Predictable as well. And if u need any GC songs.
tabbed out give us a yell.


*****************************************************************************


Artist: Good Charlotte
Song: I Just Wanna Live
Album: The Chronicles Of Life And Death

email: thesongwriter@gmail.com

this is the best song on the new GC CD!  this is just a transcription of the chords
used by the strings, guitar, and vocals...good for playing on acoustic guitar by yourself.  

all are best as power chords:
  A#   G#   F#
----------------------------
----------------------------
----------------------------
----------------------------
---8----6----4--------------
---8----6----4--------------
---6----4----2--------------

INTRO:

A# - G# - F# - G# (2x)

VERSE 1:
          A#    G#           F#
I need an alarm system in my house
     G#                   A#       G#
So I know when people are creeping about
                F#           G#
These people are freakin' me out
A#           G#          F#           G#
It's getting hectic everywhere that I go
                A#         G#
They won't just leave me alone
                    F#        G#
There's things they all wanna know
A#                     G#
I'm paranoid about the people I meet
             F#
Why are they talkin' to me?
              G#
And why can't anyone see

CHORUS:
             A#        G#      F#
I just wanna live
             G#             A#                    G#    F#
Don't really care about the things that they say
             G#              A#             G#     F#
Don't really care about what happens to me
G#           A#               G#
I just wanna live (Just wanna live
            F#              G#              A#
Just wanna live just wanna live just wanna live)
           A#                    A# D# C C#
Just wanna live just wanna live

VERSE 2:
       A#   G#                     F#             
I rock a lawsuit when I'm going to court
        G#                    A#
A white suit when I'm gettin' divorced
        G#                  F#
A black suit at the funeral home
                G#
And my birthday suit when I'm home alone
A#             G#
Talkin' on the phone
               F#                 G#
Got an interview with the rolling stone
                A#                  G#
They're saying "Now you're rich and now you're famous
    F#                 G#
And fake ass girls all know your names and
A#
Lifestyles of the rich and famous
    G#
Was your first hit aren't you ashamed?
F#
Of the life of the life
G#
Of the life we're livin'

REPEAT CHORUS (at the end hit F four times instead of the whole "just wanna live" part)

VERSE 3: (Same chords)

Stop your messin' around boy
Better think of your future
Better make some good plans boy
Said everyone of my teachers
Lookout, you better play it safe
You never know what hard times will come your way
We say where we're coming from
We've already seen
The wealth that this life can bring
Now we're expected everywhere that we go
All the things that they say
Yeah we already know

REPEAT CHORUS

End on F


****************************************************************************


Good Charlotte - Ghost Of You

Tabbed by: Agathe

Tuning: Eb
   INTRO (eachy about 8 times each)

eb|------------------------------------------------------------------------|
Bb|------------------------------------------------------------------------|
Gb|-------------1---------------------1------------------------------------|
Db|---7----5----2----3-----7----5-----2------------------------------------|
Ab|---7----5----2----3-----7----5-----2------------------------------------|
Eb|---5----3---------1-----5----3------------------------------------------|
     (A)  (G)  (E)  (F)   (A)  (F)   (E) (F)

   Verse (each strummed once upwards)
eb|----------------------0-------------------------------------------------|
Bb|---1----1-------------1-------------------------------------------------|
Gb|---2----0------1------2-------------------------------------------------|
Db|---2----2------2------3------------repeat all 4 gain--------------------|
Ab|--------3------2------0-------------------------------------------------|
Eb|--------0-------------0-------------------------------------------------|
    (Am)  (C)    (E)    (F7?)

   Pre chorus ( each strummed once, unless otherwise stated)
eb|------------------------------------------------------------------------|
Bb|------------------------------------------------------------------------|
Gb|------1----------------------1--------------1---------------------------|
Db|--5---2---3----5-----3---5---2-----3----5---2------3-3-3-3-3-3-3-3------|
Ab|--5---2---3----5-----3---5---2-----3----5---2------3-3-3-3-3-3-3-3------|
Eb|--3-------1----3-----1---3---------1----3----------1-1-1-1-1-1-1-1------|
    (G) (E) (F)

   Chorus (if you listen to the song, you can get strums)
eb|------------------------------------------------------------------------|
Bb|------------------------------------------------------------------------|
Gb|---5----1--------------5----1-------------------------------------------|
Db|---5----2----3---3-----5----2-----3---3---------------------------------|
Ab|---3----2----3---3-----3----2-----3---3---------------------------------|
Eb|-------------1---1----------------1---1---------------------------------|
     (C)  (E)  (F) (F)

repeat intro ( just first 1/2)
then verse
then pre chorus
then chorus
then

  Bridge (play as you like)
eb|------------------------------------------------------------------------|
Bb|------------------------------------------------------------------------|
Gb|---7---5--------7----7----5---------------------------------------------|
Db|---7---5---5----7----7----5---5---3-------------------------------------|
Ab|---5---3---5----5----5----3---5---3-------------------------------------|
Eb|-----------3------------------3---1-------------------------------------|

then repeat chorus 3 times, no guitar for last 1/2 of verse)


****************************************************************************


Good Charlotte - Predictable

Tabbed by: Jordy
Email: thesongwriter@gmail.com

Tuning: normal

Intro/Verse (Strings, tabbed for guitar)...play 4x

e|------------------------------------------------------------------|
B|------------------------------------------------------------------|
G|--8-8---8-8---9-9---9-9---9---9-----------------------------------|
D|--9-9---9-9---9-9---9-9---9---9---9-9---9-9---9-9---9-9---9---9---|
A|----------------------------------6-6---6-6---7-7---7-7---7---7---|
E|------------------------------------------------------------------|

The lead guitar throws in little licks of both of these:

e|------12-11---------9-7--------------|
B|---12--------------------------------|
G|-------------------------------------|
D|-------------------------------------|
A|-------------------------------------|
E|-------------------------------------|

Prechorus 1x

e|----------------------------------------------------------|
B|----------------------------------------------------------|
G|--8-8---8-8---9-9---9-9---9---9---------------------------|
D|--9-9---9-9---9-9---9-9---9---9---2-2---2-2---2-2----2----|
A|----------------------------------2-2---2-2---2-2----2----|
E|----------------------------------0-0---0-0---0-0--0-0----|

Chorus (strum each chord fast, 16x)

e|------------------|
B|------------------|
G|--4---------------|
D|--4---2---3---2---|
A|--2---2---3---2---|
E|------0---1---0---|

Chorus outro (strum fast, 5x)

e|-------|
B|-------|
G|-------|
D|--6----|
A|--6----|
E|--4----|

Bridge (strum each chord fast, 8x) play 2x

e|---------------------------------|
B|---------------------------------|
G|------------------4--------------|
D|--2---4---2---6---4---4---2---6--|
A|--2---4---2---6---2---4---2---6--|
E|--0---2---0---4-------2---0---4--|

Piano part in bridge, for guitar

e|--6-7-4-6---4--------------4-------11--11--11--11-7-7-7-7-7-7---------|
B|----------5---4-5---4---4--------11--12--9---11--5-9-5-9-5-9--0-4-7-8-|
G|------------------6---4----1------------------------------------------|
D|----------------------------------------------------------------------|
A|----------------------------------------------------------------------|
E|----------------------------------------------------------------------|

2nd part of the bridge (during piano)

e|---------------------------|
B|---------------------------|
G|---------------------------|
D|--6-6---6-6-------------2--|
A|--6-6---6-6---6-6---6---2--|
E|--4-4---4-4---0-0---0---0--|

Outro

e|--------------------------|
B|--------------------------|
G|--4-4---4-4---4-4---------|
D|--4-4---4-4---4-4-----6---|
A|--2-2---2-2---2-2-----6---|
E|--------------------4-4---|


| /  slide up
| \  slide down
| h  hammer-on
| p  pull-off
| ~  vibrato
| +  harmonic
| x  Mute note


*****************************************************************************


Good Charlotte - Secrets

Tabbed by:Jordan S.

Tuning:Standard EBGDAE

Intro
E-----x---x---x---x---x--x---x--| x3
B-----x---x---x---x---x--x---x--|
G-----8---7---5---3---x--3---8--|
D-----9---8---6---4---2--4---9--|
A-----9---8---6---4---2--4---9--|
E-----7---6---4---2------2---7--|

Lead Intro:
E--------------------------------------| X2
B--------------------------------------|
G--11----6----9----8----4---6-4(ring)--|
D--------------------------------------|
A--------------------------------------|
E--------------------------------------|

Verse:
E---x-x-x(Palm Mute)---x-x-x(Palm Mute)---x-(Palm Mute)---xx-|
B---x-x-x           ---x-x-x           ---x-           ---xx-|
G---8-x-x           ---5-x-x           ---x-           ---8x-|
D---9-x-x           ---6-x-x           ---2-           ---9x-|
A---9-x-x           ---6-x-x           ---2-           ---9x-|
E---7-x-x           ---4-x-x           -----           ---7x-|


E---x-x-x(Palm Mute)---x-x-x(Palm Mute)---x-x(Palm Mute)---x-|
B---x-x-x           ---x-x-x           ---x-x           ---x-|
G---8-x-x           ---5-x-x           ---x-x           ---3-|
D---9-x-x           ---6-x-x           ---2-x           ---4-|
A---9-x-x           ---6-x-x           ---2-x           ---4-|
E---7-x-x           ---4-x-x           -----x           ---2-|

Chorus:
E-----x---x---x---x---x--x---x--| x2
B-----x---x---x---x---x--x---x--|
G-----8---7---5---3---x--3---8--|
D-----9---8---6---4---2--4---9--|
A-----9---8---6---4---2--4---9--|
E-----7---6---4---2------2---7--|

E---x--x--x---------------------| x4
B---x--x--5-----(Lead-5-4-2)----|
G---8--3--6---------------------|
D---9--4--6---------------------|
A---9--4--4---------------------|
E---7--2------------------------|

E-----x---x---x---x---x--x---x--| x1
B-----x---x---x---x---x--x---x--|
G-----8---7---5---3---x--3---8--|
D-----9---8---6---4---2--4---9--|
A-----9---8---6---4---2--4---9--|
E-----7---6---4---2------2---7--|

Verse:
E---x-x-x(Palm Mute)---x-x-x(Palm Mute)---x-(Palm Mute)---xx-|
B---x-x-x           ---x-x-x           ---x-           ---xx-|
G---8-x-x           ---5-x-x           ---x-           ---8x-|
D---9-x-x           ---6-x-x           ---2-           ---9x-|
A---9-x-x           ---6-x-x           ---2-           ---9x-|
E---7-x-x           ---4-x-x           -----           ---7x-|


E---x-x-x(Palm Mute)---x-x-x(Palm Mute)---x-x(Palm Mute)---x-|
B---x-x-x           ---x-x-x           ---x-x           ---x-|
G---8-x-x           ---5-x-x           ---x-x           ---3-|
D---9-x-x           ---6-x-x           ---2-x           ---4-|
A---9-x-x           ---6-x-x           ---2-x           ---4-|
E---7-x-x           ---4-x-x           -----x           ---2-|

Chorus:
E-----x---x---x---x---x--x---x--| x2
B-----x---x---x---x---x--x---x--|
G-----8---7---5---3---x--3---8--|
D-----9---8---6---4---2--4---9--|
A-----9---8---6---4---2--4---9--|
E-----7---6---4---2------2---7--|

E---x--x--x---------------------| x4
B---x--x--5-----(Lead-5-4-2)----|
G---8--3--6---------------------|
D---9--4--6---------------------|
A---9--4--4---------------------|
E---7--2------------------------|

E-----x---x---x---x---x--x---x--| x1
B-----x---x---x---x---x--x---x--|
G-----8---7---5---3---x--3---8--|
D-----9---8---6---4---2--4---9--|
A-----9---8---6---4---2--4---9--|
E-----7---6---4---2------2---7--|

Bridge:No Guitar here, but played same as 2nd part of chorus, play if u want 2...
Then comes back in low then louder w/ same riff. Add lead B-5-4-2.

E---x--x--x---------------------| x6
B---x--x--5---------------------|
G---8--3--6---------------------|
D---9--4--6---------------------|
A---9--4--4---------------------|
E---7--2------------------------|

OR

E--------------------------------------| X2
B--------------------------------------|
G--11----6----9----8----4---6-4(ring)--|
D--------------------------------------|
A--------------------------------------|
E--------------------------------------|

End Lead:
E-----------------------------------|
B-----------------------------------|
G---4-(H)6------------------9-------|(Ring)
D-----------------------------------|
A-----------------------------------|
E-----------------------------------|


****************************************************************************


Good Charlotte - The Truth
Standard Tuning

Verse

                F#
so here we are
              C#
we are alone
                                  F#
there's weight on your mind
                C#
I wanna know
          Gm                         F#  
the truth if this is how you feel
            Gm
say it to me
                       F#
if this was ever real

Chorus

                    F#             Gm
I want the truth, from you.
                 F#                          C#
give me the truth, even if it hurts me.
                 F#             Gm
I want the truth, from you.
                F#                          C#    
give me the truth, even if it hurts me.
              
                  
I want the truth, so this is you
you're talking to me
you found a million ways to let me down
so im not hurt when you're not around
I was blind
but now I see
this is how you feel
just say it to me
if this was ever real

I want the truth, from you.
give me the truth, even if it hurts me.
I want the truth, from you.
give me the truth, even if it hurts me.

I know that this will break me
I know that this might make me cry
you gotta say what's on your mind,
on your mind
I know that this will hurt
break my heart and soul inside
I don't wanna live this lie

I want the truth, from you.
give me the truth, even if it hurts me.
I want the truth, from you.
give me the truth, even if it hurts me.
I don't care no more no
just give me the truth, give me the truth,
cause I don't care no more
give me the truth,
cause I don't care no more, no
give me the truth,
give me the truth,
give me the truth,
give me the truth,
give me the truth,
cause I don't care no more, no

tabbed by Sergey Seden
tell me what you think at wigger1987@hotmail.com


*****************************************************************************


Artist: Good Charlotte
Song: The World Is Black
Album: The Chronicles Of Life And Death
Tabbed by: Jordy (thesongwriter@gmail.com)

Awesome song, and it sounds great on acoustic guitar.

   Eb  F     Db  Bb
e|-----------------------------------|
B|-----------------------------------|
G|--8--10----6---3-------------------|
D|--8--10----6---3-------------------|
A|--6--8-----4---1-------------------|
E|-----------------------------------|

Verse:

Db                         Eb
Turn on channel seven at a quarter to eight
            F
You see the same damn thing
            Eb
It's just a different day
    Db            Eb                 F                   F
And no one really knows why this is happening, but it's happening
    Db                            Eb
And everywhere you go it's just a different place
            F
You get the same dark feeling
        Eb      F    Eb
See the same sad faces
Db            Eb                  F
No one really cares that this is happening

Prechorus:

   Db             Bb
We come into this world
    Db             Eb
And we are all the same
    F              Eb                Db
And in that moment there's no one to blame

Chorus:
                 Bb
But the world is black
               F
And hearts are cold
               Eb
And there's no hope
                 Db
That's what were told
                Bb
And we can't go back
                F
It won't be the same
        Eb
Forever changed
                 Db
By the things we see, see

Repeat Verse:

Living in this place has always been this way
Theres noone doing nothing
So theres nothing changed
And i cant live when this world just keeps dying
Its dying
People always tell me this is part of the plan
The gods got everybody in his hands
But i can only pray that god is listening
Is he listening

Repeat Prechorus:

We're living in this world
Growing colder everyday
Nothing can stay perfect now I see

Repeat Chorus:

But the world is black
And hearts are cold
And there's no hope
That's what were told
And we can't come back
It won't be the same
Forever changed       Db   Db
By the things we see, see, see

Repeat Prechorus Twice:

We come into this world
And we are all the same
And in that moment there's no one to blame

But we're living in this world
Growing colder everyday
Nothing can stay perfect now I say

Repeat Chorus:

The world is black
And hearts are cold
There's no hope
That's what were told
And we can't come back
It won't be the same
Forever changed
By the things we see, see, see

Repeat 1/2 Verse:

Turn on channel seven at a quarter to eight
You see the same damn thing it's just a different day
And no one really knows why this is happening

End on  F


*****************************************************************************


Good Charlotte - Mountain

Tabbed by: Sean frei (A.K.A Vortex_uk)
Email: Sean050989@hotmail.com
Tuning: Standard

Intro / Post Chorus : Clean    
                                          |Play This Part Twice(Distorted)|
e|---------|------------------------------|-------------------------------|
B|---------|------------------------------|-------------------------------|
G|---------|--555/6666666-----------------|--555/6666666------------------|
D|--5-6-4--|--xxxxxxxxxxx-44444444444444--|--555/6666666-44444444444444---|
A|--3-4-4--|--333/4444444-44444444444444--|--333/4444444-44444444444444---|
E|------2--|--------------22222222222222--|--------------22222222222222---|

Verse : Distorted

e|-----------------------------------------|
B|-----------------------------------------| Play twice.
G|-----5----6-------------6----3-----------|
D|--5555-6666----4---4-6666-3333----4---4--|
A|--3333-4444-44444444-4444-1111-44444444--|
E|------------22222222-----------22222222--|

Chorus : Distorted

e|----------------------------------------|  
B|----------------------------------------|   
G|-----------666666666--------------------| 
D|--444444444666666666666666666888888888--| 
A|--444444444444444444666666666666666666--|   
E|--222222222---------444444444666666666--|  

 |----------------------------------------|
 |----------------------------------------| Play Chorus twice.
 |-----------666666666--------------------| 
 |--444444444666666666666666666666666666--|
 |--444444444444444444666666666666666666--|
 |--222222222---------444444444444444444--|

Bridge : Distorted

e|---------------------|
B|---------------------|
D|--5-5-56666----------| Play four times.
D|--5-5-5666644443333--|
A|--3-3-3444444443333--|
E|-----------22221111--|  

Outro : Heavy Distortion

e|-----------------------------------------------------|
B|-----------------------------------------------------|
G|---------------------------66-666666-----------------|
D|--66-666666-2-66-666666-x2-66-666666-2-66-666666-x2--|
A|--66-666666-2-66-666666-x2-44-444444-2-66-666666-x2--|
E|--44-444444-0-44-444444-x0-----------0-44-444444-x0--|


Order :
 
Intro
Verse
Chorus
Post-Chorus
Verse
Chorus
Post-chorus
Bridge
Post-Chorus
Bridge
Outro


*****************************************************************************


Good Charlotte - We Believe

Intro/Verse:

|-------------------------------|
|------7-77-77--------7-77-77---|
|------6-66-66--------6-66-66---| 
|-------------------------------|
|--6---------------4------------|
|-------------------------------|

------------------------------|
------7-77-77-------7-77-77---|
------6-66-66-------6-66-66---|
------------------------------|
--2---------------2-----------|
Chorus:

|---------------------------------|
|---------------------------------|
|---4-----------------------------|
|---4-x16---4-------6-------4-----|
|---2-------4—x16---6--x16--4-x16-|
|-----------2-------4-------2-----|
'We Believe..'

On Second verse start with:

|------------------------------|
|------7-77-77-----------------|
|------6-66-66-----------------|
|------------------------------| x2
|---2--------------------------|
|------------------------------|
'same, human in..'

then just continue with the verse

Bridge:

|-----------------|----|
|-----------------|----|
|---8~---11~--4~--|--6~|
|---x----x----x---|--x-|
|---6~---9~---2~--|--4~|
|-----------------|----|

On the first time you play the verse,
hold the 3rd chord for twice as long 
and don't play the last chord Then all 
the other times you play the last chord 
at the end also


*****************************************************************************


Song: It Wasn't Enough
Band: Good Charlotte
Tuning: Standard
Tabber: Nicole Taylor

Intro:
C#m           G#
   It wasn't enough... x3


Verse 1:
C#       G#     F#            G#                 C#          G#      
I would try to belive in the things I can not see. But my faith is shaken 
 F#            G#              C#               G#             F#
now like it's never been before. When I call and You don't come I don't 
 G#                 C#                 G#       F#           G#
know what I should do. Should I call? Should I even count on You?


Chorus:
C#m                  G#  
   I've given all I can...(It wasn't enough)
C#m                  G#
   To keep You in my hands...(It wasn't enough)
C#m                 G#
   I don't understand...(was it even enough?)
C#m                  G#
   I Don't understand...
 

Verse 2:
C#         G#           F#       G#                  C#               G#    
So here I am. once again with my back against the wall. Afraid to show you.
          F#                      G#                 C#            G#
Afraid to tell you. That I don't know you like I did. I've never felt so 
      F#            G#              C#          G#                    F#
alone. I've never felt so inscure. Now I don't know where I'm going. In my 
 G#                C#m
life I'm not so sure. 


Chorus:
C#m                  G#  
   I've given all I can...(It wasn't enough)
C#m                  G#
   To keep You in my hands...(It wasn't enough)
C#m                 G#
   I don't understand...(was it even enough?)
C#m                  G#
   I Don't understand...


Bridge:
Dm         A#         Dm                    A#
Giving up tonight... I won't let go, won't let go of you
Dm         A#          Dm               A#
Giving Up tonight... I wanna show you, wanna show you
Dm                  A#
Giving up tonight. Am I giving up?
F#   A  A#
I don't wanna give this up.


Chorus:
C#m                  G#  
   I've given all I can...(It wasn't enough)
C#m                  G#
   To keep You in my hands...(It wasn't enough)
C#m                 G#
   I don't understand...(was it even enough?)
C#m                  G#
   I Don't understand...


There you go, enjoy.
If you have any questions, comments, or corrections email me at ktdpunk@yahoo.com .


*****************************************************************************


Good Charlotte - In This World (Murder)

currently missing this tab...I will add it when I can.


*****************************************************************************


Good Charlotte - Falling Away

Feel free to send me questions or comments at gothegoatee@sbcglobal.net
Tuning: 1/8 step above standard tuning
Key: C#

I have two versions of the intro. They both sound the same, the fingering is the only
difference. So whichever one works better for you is just fine, they are interchangeable.

Intro (version 1) Play this two times
Only play the (4) on the repeat
e|------------------------------------------------------|
B|------------------------------------------------------|
G|------------------------------------------------------|
D|------------------------------------------------------|
A|--6-8-9-8-6-8--6-8-9-8-6-4---6-8-9-8-6-9--8-6-4-3-(4)-|
E|------------------------------------------------------|

or you can use...

Intro (version 2) Play this two times
Only play the (9) on the repeat
e|------------------------------------------------------|
B|------------------------------------------------------|
G|------------------------------------------------------|
D|------------------------------------------------------|
A|--6-8-9-8-6-8--6-8-9-8-6----6-8-9-8-6-9--8-6----------|
E|-------------------------9-------------------9-8-(9)--|

You can decide for yourself where you want to put the slides/hammer-ons/pull-offs in
the intro, it really doesn't matter that much.

Chorus:
For the melody guitar, just play the intro over the vocals, you can hear where it goes.

As for the chords...

       I feel you falling away,            I feel you falling away,
e|------------------------------------------------------------------|
B|------------------------------------------------------------------|
G|-6----------------------------------------------------------------|
D|-6-------------------------------4--------------------------------|
A|-4-------------------------------4--------------------------------|
E|---------------------------------2--------------------------------|

       I feel you falling away from me again...
e|--------------------------------------------|
B|--------------------------------------------|
G|-6------------------------------------------|
D|-6-------------------------------6----------|
A|-4-------------------------------6----------|
E|---------------------------------4----------|

Part just after 2nd chorus run: (1:56 - 2:10) Melody
                    
                 If we can make this...               Then we can break it...
e|----------------------------------------------------------------------|
B|----------------------------------------------------------------------|
G|----------------------------------------------------------------------|
D|----------------------------------------------------------------------|
A|--8-6-4-6-8--6---------------------------8-6-4-6-8--4-----------------|
E|----------------------------------------------------------------------|

                  If we can build it...           Then we can burn it down...
e|----------------------------------------------------------------------|
B|----------------------------------------------------------------------|
G|----------------------------------------------------------------------|
D|----------------------------------------------------------------------|
A|--8-6-4-6-8--6---------------------8-6-4-6-8--4-----------------------|
E|----------------------------------------------------------------------|

Chords to this part:
                If we can make this...               Then we can break it...
e|----------------------------------------------------------------------|
B|----------------------------------------------------------------------|
G|----------------------------------------------------------------------|
D|--8\6\4/6-8--6---------------------------8\6\4/6-8--4-----------------|
A|--8\6\4/6-8--6---------------------------8\6\4/6-8--4-----------------|
E|--x\x\x/x-x--x---------------------------x\x\x/x-x--x-----------------|

The above chords part gets played two times through obviously. Just follow the lead
guitar with it and you'll be good to go. You don't have to mute the low E string if
you don't want. In that case you could use the standard power chords, Drop-D power
chords, or you could even tune the low E-string 1/8 step above C# and have a nice
low root bass always there. I'd recommend the third out of those three, then for the
rest of the chords in the song you could just leave the low E string open and explore
some different chord voicings.


Chorus at key change: (Key is now a full step up to D#)
e|----------------------------------------------------------------------|
B|----------------------------------------------------------------------|
G|----------------------------------------------------------------------|
D|----------------------------------------------------------------------|
A|--8-10-11-10-8-10--8-10-11-10-8----8-10-11-10-8-11--10-8--------------|
E|-------------------------------11-----------------------11-10-(11)----|

Obviusly you'd just play the same chords for the chorus as before, just two frets up
then before.


Since a synthesizer or something like that backs the verses and not guitar, you really
can't do much guitar over them anyway except for once you hear them come in with the
guitars themselves. Here's the best I've got so far...

Verse 1:

  And tonight we burn down everything,     We worked so hard to build...
e|------------------------------------------------------------------|
B|------------------------------------------------------------------|
G|--------------------------------------------6---------------------|
D|------4------------------6------------------6---------------------|
A|------4------------------6------------------4---------------------|
E|------2------------------4----------------------------------------|
  
  The ashes will rain down on me, memories   set aflame    sail away...
e|----------------------------------------------------------------------|
B|----------------------------------------------------------------------|
G|----6---------------------------------------------------------------6-|
D|----6---------------------------------4---------------6-------------6-|
A|----4---------------------------------4---------------6-------------4-|
E|--------------------------------------2---------------4---------------|

 What we said, if we can make this, than we can break this into two memories
e|--------------------------------------------------------------------------|
B|--------------------------------------------------------------------------|
G|-----------6--------------------------------------------------------------|
D|-----------6-----------------------------------------------------4------6-|
A|-----------4-----------------------------------------------------4------6-|
E|-----------------------------------------------------------------2------4-|

All of the verses follow that same formula so that covers all the verses. I tried to
line up the syllables with the timing, but ultimately you're better off listening to
them for yourself. Same with the chords, I only put where the chord change goes because
I don't want to put a gazillion chords to confuse you when you'll just have to end up
figuring it out yourself anyway. I would probably use either a light palm muted strum
or a harmonic melody in an alternate tuning when the synthesizer takes over and I'd
recommend a combination of reverb, delay, and no distortion.

Hopefully I'll have the full plain chord version of this song up soon ^_^


*****************************************************************************
comments
print report bad tab
1 comment total.
0 reply
gc_a7v1n wrote on January 25 2005, 12:00 am

awful....

I want to post or [tab]
guest
You may want to rate the tab now too:
select rating
Please do not post tabs as comments. Select "correction" instead!