Oops, an error
Loading. Please wait.

Where Would We Be Now Tab

ver3
ver3

Whole song

Interactive

More versions @911Tabs.com
4,517 views 6 this week
2 commentsread comments
1 2 3 4 5
excellent!
x 1
Autoscroll
+/-
esc
set tempo
stop
Contributor
Difficulty
novice
Hey! There's an official Ultimate Guitar app which is ideal
for learning songs when you're away from computer. Get the app
WARNING: You are trying to view
                                    content from Ultimate-Guitar.com
                                    in an unauthorized application,
                                    which is prohibited.

                                    Please use an official Ultimate
                                    Guitar Tabs application for iPhone,
                                    iPad or Android to access legitimate
                                    chords, guitar, bass, and drum tabs
                                    from Ultimate-Guitar.com database.

                                    Type "ultimate guitar tabs" in Apple
                                    App Store's or Android Market's
                                    search to find the application.
Good Charlotte - Where would we be now


Tabbed by: Scyther
Tuning: standard

Normally this is played on a keyboard or a piano but it also soungs great
on a guitar. I wrote the chords as well so a second guitar can play them.



Tab 1
  C                               Em

|-----3-------3-------3-------3-------3-------3-------3-------3--------|
|-5-------5-------5-------5-------5-------5-------5-------5------------|
|---5---5---5---5---5---5---5---5---4---4---4---4---4---4---4---4------|
|----------------------------------------------------------------------|
|----------------------------------------------------------------------|
|----------------------------------------------------------------------|

  F                               Fm

|-----5-------5-------5-------5-------5-------5-------5-------5--------|
|-6-------6-------6-------6-------6-------6-------6-------6------------|
|---5---5---5---5---5---5---5---5---4---4---4---4---4---4---4---4------|
|----------------------------------------------------------------------|
|----------------------------------------------------------------------|
|----------------------------------------------------------------------|



Tab 2

  F               C               G

|-5-----5-----5---3-----3-----3---3-----3-----3---3-----3-----3--------|
|---6-----6-----6---5-----5-----3---3-----3-----3---3-----3-----3------|
|-----5-----5---------5-----3---------4-----4---------4-----4----------|
|----------------------------------------------------------------------|
|----------------------------------------------------------------------|
|----------------------------------------------------------------------|


Intro:

Tab 1		1x

--------------------------------------------------------------------------
Verse 1:

Tab 1		2x

I smile , you laugh, I look away
I sigh, you ask me why, I say,
It's ok and I am just feeling down
Your hand on mine I hear the words...
If only love had found us first, our lives they would be different 

--------------------------------------------------------------------------
Interlude 1:

Dm           G         Dm
	So I stand and wait
	    G
I am just a man 

--------------------------------------------------------------------------
Refrain 1:

Tab 2		2x

Where would we be now baby, if we found each other first
Where would we be now baby,

--------------------------------------------------------------------------
Verse 2:

Tab 1		2x

And now I must confess
That I am a sinking ship
I'm anchored by the weight of my heart cause its filled with these feelings
I keep my true thoughts locked beside my hearts black box
It wont be found, it wont survive through the smoke or the wreckage

--------------------------------------------------------------------------
Interlude 2:

Dm           G         Dm
	So I crash and burn
                         G
I got a lot of things to learn 

------------------------------------------------------------------------
Refrain 2:

Tab 2		til end (I guess u'll figure out urself)
		
Where would we be now baby, if we found each other first
What would you do now darling, if I said these simple words
I'll wait, I'll wait...As long as you want

Where would we be now baby

I'll wait
I'll wait

Where would we be now baby, if we found each other first
What would you do now darling, if I said these simple words
I'll wait, I'll wait...As long as you want.

Where would we be now baby
I'll wait
I'll wait
comments
We did not receive enough feedback on this tab! Please rate:
print report bad tab
1 2 3 4 5
2 comments total.
0 reply
I_M_SOLID wrote on May 7 2007, 01:43 am

I am solid

+1 reply
ftzentsutsi wrote on May 26 2008, 01:19 am

this tab is good! but i think the last part of the intro sounds better like this

|-------4-----
|-5-----------
|----4-----4--
|-------------
|-------------
|-------------

instead of

|------5------
|-6-----------
|---4-----4---
|-------------
|-------------
|-------------

probably not the exact way to play it but it sounds a little better

I want to post or [tab]
guest
You may want to rate the tab now too:
select rating
Please do not post tabs as comments. Select "correction" instead!