Oops, an error
Loading. Please wait.

Destroyer Tab

1,864 views 6 this week
no commentswrite comment
1 2 3 4 5
please rate
add to favorites launch autoscroll
font size
0
reset
Autoscroll
+/-
esc
set tempo
stop
Contributor
Difficulty
Tabbers playing skills
intermediate
intermediate ++
WARNING: You are trying to view
                                    content from Ultimate-Guitar.com
                                    in an unauthorized application,
                                    which is prohibited.

                                    Please use an official Ultimate
                                    Guitar Tabs application for iPhone,
                                    iPad or Android to access legitimate
                                    chords, guitar, bass, and drum tabs
                                    from Ultimate-Guitar.com database.

                                    Type "ultimate guitar tabs" in Apple
                                    App Store's or Android Market's
                                    search to find the application.
Gtr I (E A D G B E) - 'Untitled'
Gtr II (E A D G B E) - 'Untitled'

   Intro
    Q=160
    Gtrs I, II
    S S S S S S S S S S S S S S S S   S S S S S S S S S S S S S S S S   7x
||----------------------------------|-----------------------------------||
||o---------------------------------|----------------------------------o||
||----------------------------------|-----------------------------------||
||----------------------------------|-----------------------------------||
||o-5-5-5-5-5-5-5-5-2-2-2-2-2-2-2-2-|-2-2-2-2-5-5-5-5-4-4-4-4-4-4-4-4--o||
||--3-3-3-3-3-3-3-3-0-0-0-0-0-0-0-0-|-0-0-0-0-3-3-3-3-2-2-2-2-2-2-2-2---||


  /           |
  W          +W
|----------|--------|
|----------|--------|
|----------|--------|
|----------|--------|
|----------|--------|
|-3--------|-(3)----|


   Main Riff
    Gtr I
    E S S S S S S E S S S S S S
||------------------------------|
||o-----------------------------|
||------------------------------|
||------------------------------|
||o-0-0-0-0-0-0-0-6-0-0-0-0-0-0-|
||------------------------------|


  E S S S S S S H         E S S S S S S S S E E E   3x
|-----------------------|---------------------------||
|-----------------------|--------------------------o||
|-----------------------|---------------------------||
|-7-------------7tr6----|-------------------7-7-7---||
|---0-0-0-0-0-0---------|-0-0-0-0-0-0-0-0-0-5-5-5--o||
|-----------------------|---------------------------||


  Gtrs I, II
  E S S S S S S E S S S S S S
|-----------------------------|
|-----------------------------|
|-----------------------------|
|-----------------------------|
|-0-0-0-0-0-0-0-6-0-0-0-0-0-0-|
|-----------------------------|


  E S S S S S S H         E S S S S S S S S E E E
|-----------------------|---------------------------|
|-----------------------|---------------------------|
|-----------------------|---------------------------|
|-7-------------7tr6----|-------------------7-7-7---|
|---0-0-0-0-0-0---------|-0-0-0-0-0-0-0-0-0-5-5-5---|
|-----------------------|---------------------------|


    E S S S S S S E S S S S S S
||------------------------------|
||o-----------------------------|
||------------------------------|
||------------------------------|
||o-0-0-0-0-0-0-0-6-0-0-0-0-0-0-|
||------------------------------|


  E S S S S S S H         E S S S S S S S S E E E   3x
|-----------------------|---------------------------||
|-----------------------|--------------------------o||
|-----------------------|---------------------------||
|-7-------------7tr6----|-------------------7-7-7---||
|---0-0-0-0-0-0---------|-0-0-0-0-0-0-0-0-0-5-5-5--o||
|-----------------------|---------------------------||


  E S S S S S S E S S S S S S
|-----------------------------|
|-----------------------------|
|-----------------------------|
|-----------------------------|
|-0-0-0-0-0-0-0-6-0-0-0-0-0-0-|
|-----------------------------|


  E S S S S S S H         E S S S S S S S S E E E
|-----------------------|-------------------------|
|-----------------------|-------------------------|
|-----------------------|-------------------------|
|-7-------------7tr6----|-------------------7-7-7-|
|---0-0-0-0-0-0---------|-0-0-0-0-0-0-0-0-0-5-5-5-|
|-----------------------|-------------------------|


   Verse 1
    E S S S S S S S S S S Q       E S S S S S S S S S S E E  7x
||------------------------------|----------------------------||
||o-----------------------------|---------------------------o||
||------------------------------|----------------------------||
||------------------------------|-----------------------7-7--||
||o-0-0-0-0-0-0-0-0-0-0-0-6tr5--|-0-0-0-0-0-0-0-0-0-0-0-5-5-o||
||------------------------------|----------------------------||


  E S S S S S S S S S S Q       E S S S S S S S S S S E E
|-----------------------------|----------------------------|
|-----------------------------|----------------------------|
|-----------------------------|----------------------------|
|-----------------------------|-----------------------7-7--|
|-0-0-0-0-0-0-0-0-0-0-0-6tr5--|-0-0-0-0-0-0-0-0-0-0-0-5-5--|
|-----------------------------|----------------------------|


   Bridge
    E S S S S S S E S S S S S S
||------------------------------|
||o-----------------------------|
||------------------------------|
||------------------------------|
||o-0-0-0-0-0-0-0-6-0-0-0-0-0-0-|
||------------------------------|


  E S S S S S S H         E S S S S S S S S E E E   3x
|-----------------------|---------------------------||
|-----------------------|--------------------------o||
|-----------------------|---------------------------||
|-7-------------7tr6----|-------------------7-7-7---||
|---0-0-0-0-0-0---------|-0-0-0-0-0-0-0-0-0-5-5-5--o||
|-----------------------|---------------------------||


  E S S S S S S E S S S S S S
|-----------------------------|
|-----------------------------|
|-----------------------------|
|-----------------------------|
|-0-0-0-0-0-0-0-6-0-0-0-0-0-0-|
|-----------------------------|


  E S S S S S S H         E S S S S S S S S E E E
|-----------------------|-------------------------|
|-----------------------|-------------------------|
|-----------------------|-------------------------|
|-7-------------7tr6----|-------------------7-7-7-|
|---0-0-0-0-0-0---------|-0-0-0-0-0-0-0-0-0-5-5-5-|
|-----------------------|-------------------------|


   Verse 2
    E S S S S S S S S S S Q       E S S S S S S S S S S E E  7x
||------------------------------|----------------------------||
||o-----------------------------|---------------------------o||
||------------------------------|----------------------------||
||------------------------------|-----------------------7-7--||
||o-0-0-0-0-0-0-0-0-0-0-0-6tr5--|-0-0-0-0-0-0-0-0-0-0-0-5-5-o||
||------------------------------|----------------------------||


  E S S S S S S S S S S Q       E S S S S S S S S S S E E
|-----------------------------|----------------------------|
|-----------------------------|----------------------------|
|-----------------------------|----------------------------|
|-----------------------------|-----------------------7-7--|
|-0-0-0-0-0-0-0-0-0-0-0-6tr5--|-0-0-0-0-0-0-0-0-0-0-0-5-5--|
|-----------------------------|----------------------------|


    S S S S S S S S S S S S S S S S   S S S S S S S S S S S S S S S S   7x
||----------------------------------|-----------------------------------||
||o---------------------------------|----------------------------------o||
||----------------------------------|-----------------------------------||
||----------------------------------|-----------------------------------||
||o-2-2-2-2-2-2-2-2-2-2-2-2-5-5-5-5-|-4-4-4-4-4-4-4-4-5-5-5-5-5-5-5-5--o||
||--0-0-0-0-0-0-0-0-0-0-0-0-3-3-3-3-|-2-2-2-2-2-2-2-2-3-3-3-3-3-3-3-3---||


  S S S S S S S S S S S S S S S S   S S S S S S S S S S S S S S S S
|---------------------------------|---------------------------------|
|---------------------------------|---------------------------------|
|---------------------------------|---------------------------------|
|---------------------------------|---------------------------------|
|-2-2-2-2-2-2-2-2-2-2-2-2-5-5-5-5-|-4-4-4-4-4-4-4-4-5-5-5-5-5-5-5-5-|
|-0-0-0-0-0-0-0-0-0-0-0-0-3-3-3-3-|-2-2-2-2-2-2-2-2-3-3-3-3-3-3-3-3-|


   Pre-Chorus
    E S S S S S S E S S S S S S   S S S S S S S S S S S S S S S S  3x
||------------------------------|----------------------------------||
||o-----------------------------|---------------------------------o||
||------------------------------|----------------------------------||
||------------------------------|----------------------------------||
||o-0-0-0-0-0-0-0-6-0-0-0-0-0-0-|-5-5-5-5-5-5-5-5-5-5-5-5-5-5-5-5-o||
||------------------------------|-3-3-3-3-3-3-3-3-3-3-3-3-3-3-3-3--||


   Chorus
    S S S S S S S S S S S S S S S S   S S S S S S S S S S S S S S S S   4x
||----------------------------------|-----------------------------------||
||o---------------------------------|----------------------------------o||
||----------------------------------|-----------------------------------||
||----------------------------------|-----------------------------------||
||o-2-2-2-2-2-2-2-2-2-2-2-2-5-5-5-5-|-4-4-4-4-4-4-4-4-5-5-5-5-5-5-5-5--o||
||--0-0-0-0-0-0-0-0-0-0-0-0-3-3-3-3-|-2-2-2-2-2-2-2-2-3-3-3-3-3-3-3-3---||


   Pre-Chorus
    E S S S S S S E S S S S S S   S S S S S S S S S S S S S S S S     3x
||------------------------------|-------------------------------------||
||o-----------------------------|------------------------------------o||
||------------------------------|-------------------------------------||
||------------------------------|-------------------------------------||
||o-0-0-0-0-0-0-0-6-0-0-0-0-0-0-|-5-5-5-5-5-5-5-5-5-5-5-5-5-5-5-5----o||
||------------------------------|-3-3-3-3-3-3-3-3-3-3-3-3-3-3-3-3-----||


   Chorus
    S S S S S S S S S S S S S S S S   S S S S S S S S S S S S S S S S   8x
||----------------------------------|-----------------------------------||
||o---------------------------------|----------------------------------o||
||----------------------------------|-----------------------------------||
||----------------------------------|-----------------------------------||
||o-3-3-3-3-3-3-3-3-3-3-3-3-5-5-5-5-|-4-4-4-4-4-4-4-4-5-5-5-5-5-5-5-5--o||
||--1-1-1-1-1-1-1-1-1-1-1-1-3-3-3-3-|-2-2-2-2-2-2-2-2-3-3-3-3-3-3-3-3---||


   Fade Out
    S S S S S S S S S S S S S S S S   S S S S S S S S S S S S S S S S   4x
||----------------------------------|-----------------------------------||
||o---------------------------------|----------------------------------o||
||----------------------------------|-----------------------------------||
||----------------------------------|-----------------------------------||
||o-3-3-3-3-3-3-3-3-3-3-3-3-5-5-5-5-|-4-4-4-4-4-4-4-4-5-5-5-5-5-5-5-5--o||
||--1-1-1-1-1-1-1-1-1-1-1-1-3-3-3-3-|-2-2-2-2-2-2-2-2-3-3-3-3-3-3-3-3---||
comments
We did not receive enough feedback on this tab! Please rate:
1 2 3 4 5
I want to post or [tab]
guest
You may want to rate the tab now too:
select rating
Please do not post tabs as comments. Select "correction" instead!