Oops, an error
Loading. Please wait.

Waste Of Mortality Tab

1,178 views 1 this week
no commentswrite comment
1 2 3 4 5
please rate
add to favorites launch autoscroll
font size
0
reset
Autoscroll
+/-
esc
set tempo
stop
Contributor
WARNING: You are trying to view
                                    content from Ultimate-Guitar.com
                                    in an unauthorized application,
                                    which is prohibited.

                                    Please use an official Ultimate
                                    Guitar Tabs application for iPhone,
                                    iPad or Android to access legitimate
                                    chords, guitar, bass, and drum tabs
                                    from Ultimate-Guitar.com database.

                                    Type "ultimate guitar tabs" in Apple
                                    App Store's or Android Market's
                                    search to find the application.
Gtr I (Db Gb B E Ab Db) - 'Acoustic1'
Gtr II (Db Gb B E Ab Db) - 'Acoustic2'
Gtr III (Db Gb B E Ab Db) - 'Distortion1'
Gtr IV (Db Gb B E Ab Db) - 'Distortion2'
Gtr V (Db Gb B E Ab Db) - 'Lead'

   Intro
    Q=142
    (Emadd9)                            (Gmaj7/C)         N.C.
   4/4
    Gtr I
    E E E E E E E E   E E E E E E E E   E E E E E E E E   W
||----0-------------|---0-------------|-----------------|-------||
||o-----0-----------|-----0-----------|---------0-------|------o||
||----------------0-|---------------0-|-----0-----0---0-|-------||
||----------4-------|---------4---4---|---4---------4---|-------||
||o-------------2---|-----------------|-3-----3---------|-2----o||
||--0-----0---0-----|-0-----0---0-----|-----------------|-------||


  Q=143
  (Emadd9)
  Gtr I
   E        E    E  E E E E E       E  E E E E E  E E
|-----------0---------------------|----0--------------|
|----------------0----------------|------0------------|
|---------------------------0-----|-----------------0-|
|---------------------4-----------|----------4----4---|
|-------------------------2-------|-------------------|
|--0----------------0---0---------|-0------0---0------|
|
| Gtr II
|                           |-3-|
|  E       +E   +E  E E E E S S S   Q.     E E E  E E
|---------------------------------|-------------------|
|---------------------------------|-------------------|
|-11pb12==(11)r(11)-9-8---9-8h9p8-|-------------------|
|-----------------------9---------|-9------9----------|
|---------------------------------|----------7-8-10---|
|---------------------------------|-------------------|


  (Gmaj7/C)               (Gmaj7/B)
    E  E E  E E  E  E E     E E  E   E   E  E E E
|-----------------------|---------------------------|
|-------------0---------|------------0------0-------|
|--------0-------0----0-|--------0-------0------0---|
|------4------------4---|-----4---------------4-----|
|---3-------3-----------|---2-----------------------|
|-----------------------|---------------------------|
|
|   ~~~~                                 ~~
|   Q.      E E  E  E E     Q    E  +E   Q.     e
|-----------------------|---------------------------|
|-----------------------|---------------------------|
|---------------------9-|-/12---11-(11)\-9------9---|
|-/10------10---10-12---|---------------------------|
|-----------------------|---------------------------|
|-----------------------|---------------------------|


  (Emadd9)
   E  E E  E  E  E  E E     E   E E E   E  E E  E
|-----0-----------------|-------0-----------------|
|-------0---------------|---------0---------------|
|---------------------0-|-----------------------0-|
|-------------4---------|---------------4----4----|
|-------------------2---|-------------------------|
|--0-------0-----0------|---0-------0------0------|
|
|  ~~~              ~~~~~~~~~~~
|  Q.      E  E  E  Q      +E   E E E   Q.      E
|------------12---------|-------------------------|
|-12------12----12-11---|-(11)-11-----------------|
|-----------------------|---------9-8-/11------11-|
|-----------------------|-------------------------|
|-----------------------|-------------------------|
|-----------------------|-------------------------|


  (Gmaj7/C)             (Gmaj7/B)
   E E  E E E E  E  E   E  E E E E E   E E
|---------------------|--------------------|
|-----------0---------|--------0---0-------|
|-------0-----0-----0-|------0---0-------0-|
|----4-----------4----|----4-----------4---|
|--3------3-----------|-2------------------|
|---------------------|--------------------|
|
|       ~~              ~~
|  Q    H        E  E   Q.     E Q     Q
|---------------------|--------------------|
|---------------------|--------------------|
|-12---11-------12-11-|----------9---/11---|
|---------------------|-9------------------|
|---------------------|--------------------|
|---------------------|--------------------|


  (Em/C)              (C/Ab)
  E E E E  E  E E E   E  E E  E E  E    E E
|----------0--------|-----------------------|
|-------0-----0-----|-----------------------|
|-----0-----------0-|-------------------0---|
|---2-----------2---|------2----2---------2-|
|-3-----------------|----3---------3--------|
|-------------------|-4-------4-------------|
|
| ~~~~~~~~~~~~             ~~
| H       +Q    E E   E  E Q.     +S  S E E
|-------------------|-----------------------|
|-------------------|-----------------------|
|-8-------(8)---9-8-|-----------------------|
|-------------------|-9-10-9------(9)---8-9-|
|-------------------|-----------------------|
|-------------------|-----------------------|


  (Cmaj7/E)          (C/Ab)
  E  E E E E E E E     Q  E E  E  E E   E
|------------------|------------------------|
|----------0-------|------------------------|
|--------0---0---0-|----------------0-------|
|------2-------2---|------2----2--------2---|
|----3-------------|--------------3---------|
|-0----------------|---4----4---------------|
|
| ~~                   ~~~
| H.           E E     H       Q.      +E
|------------------|------------------------|
|------------------|-/12------11------(11)\-|
|-8------------9-8-|------------------------|
|------------------|------------------------|
|------------------|------------------------|
|------------------|------------------------|


  (Em/C)              (C/Ab)
  E E E E  E  E E E   E  E E  E E  E    E E
|----------0--------|-----------------------|
|-------0-----0-----|-----------------------|
|-----0-----------0-|-------------------0---|
|---2-----------2---|------2----2---------2-|
|-3-----------------|----3---------3--------|
|-------------------|-4-------4-------------|
|
| ~~~~~~~~~~~~             ~~
| H       +Q    E E   E  E Q.     +S  S E E
|-------------------|-----------------------|
|-------------------|-----------------------|
|-8-------(8)---9-8-|-----------------------|
|-------------------|-9-10-9------(9)---8-9-|
|-------------------|-----------------------|
|-------------------|-----------------------|


  (Cmaj7/E)          (C/Ab)
  E  E E E E E E E     Q  E E E  E E  E
|------------------|-------------------------|
|----------0-------|-------------------------|
|--------0---0---0-|---------------0---------|
|------2-------2---|------2---2-------2------|
|----3-------------|-------------3-----------|
|-0----------------|---4----4----------------|
|
| ~~                   ~~~~~~~~~~
| H.           E E     H      Q.     +S  S
|------------------|-------------------------|
|------------------|-------------------------|
|-8------------9-8-|-------------------------|
|------------------|-/10------9------(9)-----|
|------------------|-------------------------|
|------------------|-------------------------|


    Q=142
    (Emadd9)                 (Gmaj7/C(Gmaj7)
    E E   E E E  E     E E   E E E E E E E E
||-------------------------|-----------------|
||o-----------0------------|-------0---------|
||----------0----0-------0-|-----0---------0-|
||--------4------------4---|---4---------4---|
||o---2--------------------|-3---------2-----|
||--0----------------------|---------3-------|
|
|           ~                    ~
|   Q     E Q   +S  S  E E   Q   Q   E E E E
||-------------------------|-----------------|
||o------------------------|-----------------|
||-------------------------|-----------------|
||------/10-9---(9)---10-9-|-5---4---5p4---4-|
||o------------------------|-------------6---|
||-------------------------|-----------------|


  (Emadd9)                  (Gmaj7/C(Gmaj7)
   E  E     E E  E E  E E   E E E E E E E E
|-------------------------|-------------------||
|----------------0--------|-------0----------o||
|-------------0----0----0-|-----0---------0---||
|-----------4---------4---|---4---------4-----||
|-----2-------------------|-3---------2------o||
|--0----------------------|---------3---------||
|
|             ~~                ~
| +E.   S   E Q.      E E   E E Q   E E E e
|-------------------------|-------------------||
|-------------------------|-7-8-7---8-7---7--o||
|-------------------------|-------------8-----||
|-(4)-----/10-9------10-9-|-------------------||
|-------------------------|------------------o||
|-------------------------|-------------------||


  (Em)
                          1/4
  Gtr I
  W          +W            +Q
  |           |             |
  o           /             /

  Gtr II
  W          +W            +Q
|----------|------------||------|
|-8--------|-(8)--------||-(8)--|
|----------|------------||------|
|----------|------------||------|
|----------|------------||------|
|----------|------------||------|


   Part 2 (00:58)
    Q=150
    F#5                     Bb5/F       G5
   4/4
    Gtr III
    E E  E  E  E  E  E  E    E  E  E  E  E  E  E  E
||------------------------|-------------------------|
||o-----------------------|-------------------------|
||------------------------|-11-11-10-10-------10-10-|
||------11-11-12-12-11-11-|-------------12-12-------|
||o-9-9-------------------|-------------------------|
||------------------------|-------------------------|
|
|   Gtr IV
|   W                        H           H
||------------------------|-------------------------|
||o-----------------------|-------------------------|
||------------------------|-------------------------|
||------------------------|--3----------------------|
||o-4---------------------|--1-----------5----------|
||--2---------------------|--1-----------3----------|


  F#5                     Bb5/F   G5
  E E  E  E  E  E  E  E   E E E E  E  E  E  E
|-----------------------|-----------------------||
|-----------------------|----------------------o||
|-----------------------|-----------------------||
|-----11-11-12-12-11-11-|-8-8-8-8---------------||
|-9-9-------------------|---------10-10-10-10--o||
|-----------------------|-----------------------||
|
| W                       H        H
|-----------------------|-----------------------||
|-----------------------|----------------------o||
|-----------------------|-----------------------||
|-----------------------|-3---------------------||
|-4---------------------|-1--------5-----------o||
|-2---------------------|-1--------3------------||


    Q=164
    N.C.
    PM------------------------------------------------------------|
    E   E   E   E   E   E   E   E     E   E   E   E   E   E   E   E
||----------------------------------|---------------------------------|
||o---------------------------------|---------------------------------|
||----------------------------------|---------------------------------|
||----------------------------------|-4---4---3---3-----------3---3---|
||o---------4---4---5---5---4---4---|-----------------5---5-----------|
||--2---2---------------------------|---------------------------------|
|
|   PM--------------------------------------------------------------|
|   S S S S S S S S S S S S S S S S   S S S S S S S S S S S S S S S S
||----------------------------------|---------------------------------|
||o---------------------------------|---------------------------------|
||----------------------------------|---------------------------------|
||----------------------------------|---------------------------------|
||o---------------------------------|-1-1-1-1-1-1-1-1-----------------|
||--2-2-2-2-2-2-2-2-2-2-2-2-2-2-2-2-|-----------------1-1-1-1-1-1-1-1-|


  PM-------------------------------
  E   E   E   E   E   E   E   E
|---------------------------------|
|---------------------------------|
|---------------------------------|
|---------------------------------|
|---------4---4---5---5---4---4---|
|-2---2---------------------------|
|
| PM-------------------------------
| S S S S S S S S S S S S S S S S
|---------------------------------|
|---------------------------------|
|---------------------------------|
|---------------------------------|
|---------------------------------|
|-2-2-2-2-2-2-2-2-2-2-2-2-2-2-2-2-|


 1.                                  2.
                                                      G5
 -------------------------------------------------|
  E   E   E   E   E   E   E   E       E   E   E   E   q  Q
|----------------------------------||-----------------------|
|---------------------------------o||-----------------------|
|----------------------------------||-----------------------|
|----------------------------------||-----------------------|
|-1---1---1---1-------------------o||-1---1---1---1---5-----|
|-----------------3---3---3---3----||-----------------3-----|
|
|---------------------------------------------------|
| S S S S S S S S S S S S S S S S     S S S S S S S S q  Q
|----------------------------------||-----------------------|
|---------------------------------o||-----------------------|
|----------------------------------||-----------------------|
|----------------------------------||-----------------------|
|-1-1-1-1-1-1-1-1-----------------o||-1-1-1-1-1-1-1-1-5-----|
|-----------------3-3-3-3-3-3-3-3--||-----------------3-----|


   [01:22:40]
    Q=168
    N.C.                    BbA5                    G#A5F#5
    Gtr III
    PM--------------------------------------------------|
    S S S S S S S S S S E   E E   S S S S S S S S E E E E  4x
||------------------------------|--------------------------||
||o-----------------------------|-------------------------o||
||------------------------------|--------------------------||
||------------------------------|--------------------------||
||o-------------------------8-7-|-------------------6-7-4-o||
||--3-3-3-3-3-3-3-3-3-3-3---6-5-|-2-2-2-2-2-2-2-2-2-4-5-2--||
|
|   Gtr IV
|   PM--------------------------------------------------|
|   S S S S S S S S S S S S E E   S S S S S S S S E E E E  4x
||------------------------------|--------------------------||
||o-----------------------------|-------------------------o||
||------------------------------|--------------------------||
||------------------------------|--------------------------||
||o-------------------------8-7-|-------------------6-7-4-o||
||--3-3-3-3-3-3-3-3-3-3-3-3-6-5-|-2-2-2-2-2-2-2-2-2-4-5-2--||


   [01:34:10]
    Q=152                                        1.              2.
    F#5          E#5                 F#5          E#5             E#5
                       ~~~                              ~~~             ~~~
    H    Q  Q    H     H             H    Q  Q    H     H         H     H
||-------------|--------------||-||-------------|--------------||-------------|
||o------------|-------------o||-||o------------|-------------o||-------------|
||-------------|--------------||-||-------------|--------------||-------------|
||-------------|------[5]-----||-||-------------|--------------||------[5]----|
||o-4----------|-3-----------o||-||o-4----------|-3-----------o||-3-----------|
||--2----5--2--|-1------------||-||--2----5--2--|-1-----3------||-1-----------|
|
|                      ~~~                              ~~~             ~~~
|   H    Q  Q    H     H             H    Q  Q    H     H         H     H
||-------------|--------------||-||-------------|--------------||-------------|
||o------------|-------------o||-||o------------|-------------o||-------------|
||-------------|--------------||-||-------------|--------------||-------------|
||-------------|--------------||-||-------------|--------------||-------------|
||o-4----------|-3-----------o||-||o-4----------|-3-----------o||-3-----------|
||--2----5--2--|-1----[3]-----||-||--2----5--2--|-1----[3]-----||-1----[3]----|


   [01:46:45]
    Q=165
    F#5           E#5             F#5
   3/4
      PM------|     PM------|       PM------|
    E E E E E E   E E E E E E     E E E E E E
||--------------|--------------||-------------|
||o-------------|-------------o||-------------|
||--------------|--------------||-------------|
||--------------|--------------||-------------|
||o-4-----------|-3-----------o||-4-----------|
||--2-2-2-2-5-2-|-1-1-1-1-4-1--||-2-2-2-2-5-2-|
|
|   PM-----------------------------------------
|   E E E E E E   E E E E E E     E E E E E E
||--------------|--------------||-------------|
||o-------------|-------------o||-------------|
||--------------|--------------||-------------|
||--------------|--------------||---6---------|
||o---4---------|---3---------o||-4---4-5-7-4-|
||--2---2-3-5-2-|-1---1-2-4-1--||-------------|


  E#5           F#5           E#5
    PM------|     PM------|     PM------|
  E E E E E E   E E E E E E   E E E E E E
|-------------|-------------|-------------|
|-------------|-------------|-------------|
|-------------|-------------|-------------|
|-------------|-------------|-------------|
|-3-----------|-4-----------|-3-----------|
|-1-1-1-1-4-1-|-2-2-2-2-5-2-|-1-1-1-1-4-1-|
|
|---------------------------------------|
| E E E E E E   E E E E E E   E E E E E E
|-------------|-------------|-------------|
|-------------|-------------|-------------|
|-------------|-------------|-------------|
|---5---------|-------------|-------------|
|-3---3-4-6-3-|---4---------|---3---------|
|-------------|-2---2-3-5-2-|-1---1-2-4-1-|


   [01:55:45]
    N.C.                    BbA5                    G#A5F#5
   4/4
    PM--------------------------------------------------|
    S S S S S S S S S S E   E E   S S S S S S S S E E E E  4x
||------------------------------|--------------------------||
||o-----------------------------|-------------------------o||
||------------------------------|--------------------------||
||------------------------------|--------------------------||
||o-------------------------8-7-|-------------------6-7-4-o||
||--3-3-3-3-3-3-3-3-3-3-3---6-5-|-2-2-2-2-2-2-2-2-2-4-5-2--||
|
|   PM--------------------------------------------------|
|   S S S S S S S S S S S S E E   S S S S S S S S E E E E  4x
||------------------------------|--------------------------||
||o-----------------------------|-------------------------o||
||------------------------------|--------------------------||
||------------------------------|--------------------------||
||o-------------------------8-7-|-------------------6-7-4-o||
||--3-3-3-3-3-3-3-3-3-3-3-3-6-5-|-2-2-2-2-2-2-2-2-2-4-5-2--||


   [02:07:00]
    Q=160
    F#5 C#5 D5  C#5   F#5 E#5 D5  E#5   F#5 C#5 D5  C#5   Bb5     G5
    Gtrs III, IV
    PM------------------------------------------------------------------|
    E E E E E E E E   E E E E E E E E   E E E E E E E E   E E E E E E E E
||------------------|-----------------|-----------------|------------------||
||o-----------------|-----------------|-----------------|-----------------o||
||------------------|-6-6-5-5-----5-5-|-----------------|------------------||
||------6-6-7-7-6-6-|-4-4-3-3-7-7-3-3-|-----6-6-7-7-6-6-|------------------||
||o-4-4-4-4-5-5-4-4-|---------5-5-----|-4-4-4-4-5-5-4-4-|-8-8-8-8-5-5-5-5-o||
||--2-2-------------|-----------------|-2-2-------------|-6-6-6-6-3-3-3-3--||


 Guitar Lead [02:19:05]
  Q=150
  F#5               E#5
  Gtr III
                             ~~~
  H       Q   Q     H        H
|-----------------|-------------------|
|-----------------|-------------------|
|-----------------|-------------------|
|-----------------|---------[5]-------|
|-4---------------|-3-----------------|
|-2-------5---2---|-1-----------------|
|
| Gtr IV
|                            ~~~
| H       Q   Q     H        H
|-----------------|-------------------|
|-----------------|-------------------|
|-----------------|-------------------|
|-----------------|-------------------|
|-4---------------|-3-----------------|
|-2-------5---2---|-1-------[3]-------|
|
| Gtr V
| E E E E E E E E   E E E E  E  E E E
|-----------------|-------------------|
|-----------------|-------------------|
|-----------------|-------------------|
|-------4-5---7-8-|-7--------5--4---4-|
|-4-5-------5-----|---4-5-4-------5---|
|-----7-----------|-------------------|


  F#5                 E#5
                                ~~~
  H       Q    Q       H        H
|-------------------|---------------------|
|-------------------|---------------------|
|-------------------|---------------------|
|-------------------|----------[5]--------|
|-4-----------------|--3------------------|
|-2-------5----2----|--1------------------|
|
|                               ~~~
| H       Q    Q       H        H
|-------------------|---------------------|
|-------------------|---------------------|
|-------------------|---------------------|
|-------------------|---------------------|
|-4-----------------|--3------------------|
|-2-------5----2----|--1-------[3]--------|
|
| E E E E E E  E  E    E E E E  E  E E E
|-------------------|---------------------|
|-------7-8---10-11-|-10--------8--7---7--|
|-6-7-------7-------|----6-7-6-------7----|
|-----9-------------|---------------------|
|-------------------|---------------------|
|-------------------|---------------------|


  F#5              E#5
                         |------------6------------|
  H        Q  Q    H     E    +E  +E    +E  +E    +E
|----------------|------------------------------------|
|----------------|------------------------------------|
|----------------|------------------------------------|
|----------------|------[5]b6r(5)-(5)b6r(5)-(5)b6r(5)-|
|-4--------------|-3----------------------------------|
|-2--------5--2--|-1----------------------------------|
|
|                        ~~~~~~
| H        Q  Q    H     H
|----------------|------------------------------------|
|----------------|------------------------------------|
|----------------|------------------------------------|
|----------------|------------------------------------|
|-4--------------|-3----------------------------------|
|-2--------5--2--|-1----[3]---------------------------|
|
|     ~~~          ~~~~~~~~~~~~
| Q  +Q    Q  Q    H     H
|----------------|------------------------------------|
|----------------|------------------------------------|
|-6--(6)--/9--6--|-5-----7----------------------------|
|----------------|------------------------------------|
|----------------|------------------------------------|
|----------------|------------------------------------|


  F#5              E#5
                           |-------------6-------------|
  H        Q  Q    H       E    +E    +E    +E  +E    +E
|----------------|----------------------------------------|
|----------------|----------------------------------------|
|----------------|----------------------------------------|
|----------------|--------[5]b6r(5)---(5)b6r(5)-(5)b6r(5)-|
|-4--------------|-3--------------------------------------|
|-2--------5--2--|-1--------------------------------------|
|
|                          |-------------6-------------|
| H        Q  Q    H       E    +E    +E    +E  +E    +E
|----------------|----------------------------------------|
|----------------|----------------------------------------|
|----------------|----------------------------------------|
|----------------|----------------------------------------|
|-4--------------|-3--------------------------------------|
|-2--------5--2--|-1------[3]b4r(3)---(3)b4r(3)-(3)b4r(3)-|
|
|     ~~~                  PM-------|
| Q  +Q    Q  Q    Q  E E  E        E        Q
|----------------|----------------------------------------|
|----------------|----------------------------------------|
|-6--(6)--/9--6--|-5--6-5---------------------------------|
|----------------|---------------------------6------------|
|----------------|---------4--------4---------------------|
|----------------|----------------------------------------|


  F#5               E#5                 F#5
                             ~~~
  H       Q   Q     H        H          H       Q   Q
|-----------------|-------------------|-----------------|
|-----------------|-------------------|-----------------|
|-----------------|-------------------|-----------------|
|-----------------|---------[5]-------|-----------------|
|-4---------------|-3-----------------|-4---------------|
|-2-------5---2---|-1-----------------|-2-------5---2---|
|
|                            ~~~
| H       Q   Q     H        H          H       Q   Q
|-----------------|-------------------|-----------------|
|-----------------|-------------------|-----------------|
|-----------------|-------------------|-----------------|
|-----------------|-------------------|-----------------|
|-4---------------|-3-----------------|-4---------------|
|-2-------5---2---|-1-------[3]-------|-2-------5---2---|
|
| E E E E E E E E   E E E E  E  E E E   E E E E E E E E
|-----------------|-------------------|-----------------|
|-----------------|-------------------|-----------------|
|-----------------|---------------5-5-|-----------------|
|-----7-7-6-6-----|-7-7------7--7-----|-----7-7-6-6-----|
|-4-4---------7-7-|-----6-6-----------|-4-4---------7-7-|
|-----------------|-------------------|-----------------|


  E#5
           |--------------6--------------|
  H        E    +E    +E    +E  +E      +E
|--------------------------------------------|
|--------------------------------------------|
|--------------------------------------------|
|---------[5]b6r(5)---(5)b6r(5)-(5)b6r==(5)--|
|-3------------------------------------------|
|-1------------------------------------------|
|
|          |--------------6--------------|
| H        E    +E    +E    +E  +E      +E
|--------------------------------------------|
|--------------------------------------------|
|--------------------------------------------|
|--------------------------------------------|
|-3------------------------------------------|
|-1-------[3]b4r(3)---(3)b4r(3)-(3)b4r==(3)--|
|
| E E E E  E        E        E        E
|--------------------------------------------|
|--------------------------------------------|
|--------------------------------------------|
|-7-7----------------------------------------|
|-----4-4--3--------3--------3--------3------|
|--------------------------------------------|


  F#5                       E#5
                                         ~~~
   H           Q     Q       H           H
|-------------------------|--------------------------|
|-------------------------|--------------------------|
|-------------------------|--------------------------|
|-------------------------|-------------[5]----------|
|--4----------------------|--3-----------------------|
|--2-----------5-----2----|--1-----------------------|
|
|                                        ~~~
|  H           Q     Q       H           H
|-------------------------|--------------------------|
|-------------------------|--------------------------|
|-------------------------|--------------------------|
|-------------------------|--------------------------|
|--4----------------------|--3-----------------------|
|--2-----------5-----2----|--1----------[3]----------|
|
|  E  E  E  E  E  E  E  E    E  E  E  E  E   E  E  E
|-------------------------|--------------------------|
|-------------------------|--------------------13-13-|
|-------14-14-13-13-------|-14-14-------14--14-------|
|-11-11-------------14-14-|-------13-13--------------|
|-------------------------|--------------------------|
|-------------------------|--------------------------|


  F#5                       C5/G      D5/A
   H           Q     Q       H          H
|-------------------------|------------------|
|-------------------------|------------------|
|-------------------------|------------------|
|-------------------------|--5----------7----|
|--4----------------------|--3----------5----|
|--2-----------5-----2----|--3----------5----|
|
|  H           Q     Q       H          H
|-------------------------|------------------|
|-------------------------|------------------|
|-------------------------|------------------|
|-------------------------|--5----------7----|
|--4----------------------|--3----------5----|
|--2-----------5-----2----|------------------|
|
|                                 ~~~~
|  E  E  E  E  E  E  E  E    Q   +Q     H
|-------------------------|------------------|
|-------------------------|------------------|
|-------14-14-13-13-------|------------------|
|-11-11-------------14-14-|-10--(10)--/12----|
|-------------------------|------------------|
|-------------------------|------------------|


 [02:44:40]
  Q=190
  N.C.
  Gtrs III, IV
    S  S S S S S S S S S S S   S  S S S   S S S S S S S S S S S S S S S S
|---------------------------------------|----------------------------------|
|---------------------------------------|----------------------------------|
|---------------------------------------|----------------------------------|
|---------------------------------------|----------------------------------|
|---5--5-5-5----------------------------|---------5-5-5-5-4-4-4-4----------|
|------------4-4-4-4-7-7-7-7---7--7-7-7-|-7-7-7-7-----------------7-7-7-7--|
|
| Gtr V
|                              >
|   ~~~~
|   H.                        +Q          W
|---------------------------------------|----------------------------------|
|---------------------------------------|----------------------------------|
|-[14]-----------------------(14)-------|----------------------------------|
|---------------------------------------|----------------------------------|
|---------------------------------------|----------------------------------|
|---------------------------------------|----------------------------------|


  Gtrs III, IV
  S S S S S S S S S S S S S S S S   S S S S S S S S S S S S S S S S
|---------------------------------|----------------------------------|
|---------------------------------|----------------------------------|
|---------------------------------|----------------------------------|
|---------------------------------|----------------------------------|
|-5-5-5-5-------------------------|----------------------------------|
|---------4-4-4-4-7-7-7-7-7-7-7-7-|-3-3-3-3-3-3-3-3-3-3-3-3-3-3-3-3--|


    S S S S S S S S S S S S S S S S   S S S S S S S S S S S S S S S S
||----------------------------------|---------------------------------|
||o---------------------------------|---------------------------------|
||----------------------------------|---------------------------------|
||----------------------------------|---------------------------------|
||o-5-5-5-5-------------------------|---------5-5-5-5-4-4-4-4---------|
||----------4-4-4-4-7-7-7-7-7-7-7-7-|-7-7-7-7-----------------7-7-7-7-|


                                   1.,2.
  S S S S S S S S S S S S S S S S   S S S S S S S S S S S S S S S S   3x
|---------------------------------|-----------------------------------||
|---------------------------------|----------------------------------o||
|---------------------------------|-----------------------------------||
|---------------------------------|-----------------------------------||
|-5-5-5-5-------------------------|----------------------------------o||
|---------4-4-4-4-7-7-7-7-7-7-7-7-|-3-3-3-3-3-3-3-3-3-3-3-3-3-3-3-3---||


   [03:03:40]
    3.188                               Q=183
   3/4
    Gtr III
    PM------------------------------------------------------------|
    E E E E E E   S S E E E E E  4x     E E E E E E   S S E E E E E  4x
||--------------|----------------||-||--------------|----------------||
||o-------------|---------------o||-||o-------------|---------------o||
||--------------|----------------||-||--------------|----------------||
||--------------|----------------||-||--------------|----------------||
||o---4---------|---------------o||-||o---4---------|---------------o||
||--2---2-4-5-2-|-1-1-1-2-1-2-1--||-||--2---2-4-5-2-|-1-1-1-2-1-2-1--||
|
|   Gtr IV
|   PM------------------------------------------------------------|
|   E E E E E E   S S E E E E E  4x     E E E E E E   S S E E E E E  4x
||--------------|----------------||-||--------------|----------------||
||o-------------|---------------o||-||o-------------|---------------o||
||--------------|----------------||-||--------------|----------------||
||----6---------|----------------||-||--------------|----------------||
||o-4---4-6-7-4-|-3-3-3-4-3-4-3-o||-||o---4---------|---------------o||
||--------------|----------------||-||--2---2-4-5-2-|-1-1-1-2-1-2-1--||


   [03:19:06]
    Q=175                         Q=170
    F#5           E#5             F#5
   3/4
      PM------|     PM------|       PM------|
    E E E E E E   E E E E E E     E E E E E E
||--------------|--------------||-------------|
||o-------------|-------------o||-------------|
||--------------|--------------||-------------|
||--------------|--------------||-------------|
||o-4-----------|-3-----------o||-4-----------|
||--2-2-2-2-5-2-|-1-1-1-1-4-1--||-2-2-2-2-5-2-|
|
|   PM-----------------------------------------
|   E E E E E E   E E E E E E     E E E E E E
||--------------|--------------||-------------|
||o-------------|-------------o||-------------|
||--------------|--------------||-------------|
||--------------|--------------||---6---------|
||o---4---------|---3---------o||-4---4-5-7-4-|
||--2---2-3-5-2-|-1---1-2-4-1--||-------------|


  E#5           F#5           E#5
    PM------|     PM------|     PM------|
  E E E E E E   E E E E E E   E E E E E E
|-------------|-------------|-------------|
|-------------|-------------|-------------|
|-------------|-------------|-------------|
|-------------|-------------|-------------|
|-3-----------|-4-----------|-3-----------|
|-1-1-1-1-4-1-|-2-2-2-2-5-2-|-1-1-1-1-4-1-|
|
|---------------------------------------|
| E E E E E E   E E E E E E   E E E E E E
|-------------|-------------|-------------|
|-------------|-------------|-------------|
|-------------|-------------|-------------|
|---5---------|-------------|-------------|
|-3---3-4-6-3-|---4---------|---3---------|
|-------------|-2---2-3-5-2-|-1---1-2-4-1-|


  Q=143
  F#5                     Bb5/F       G5
 4/4
  Gtr III
  E E  E  E  E  E  E  E    E  E  E  E  E  E  E  E
|-----------------------|-------------------------|
|-----------------------|-------------------------|
|-----------------------|-11-11-10-10-------10-10-|
|-----11-11-12-12-11-11-|-------------12-12-------|
|-9-9-------------------|-------------------------|
|-----------------------|-------------------------|
|
| Gtr IV
| W                        H           H
|-----------------------|-------------------------|
|-----------------------|-------------------------|
|-----------------------|-------------------------|
|-----------------------|--3----------------------|
|-4---------------------|--1-----------5----------|
|-2---------------------|--1-----------3----------|


  Q=170
  N.C.                                              G5
  PM--------------------------------------------|
  E   E   E   E   E   E   E   E     E   E   E   E   q  Q
|---------------------------------|------------------------|
|---------------------------------|------------------------|
|---------------------------------|------------------------|
|---------------------------------|------------------------|
|---------4---4---5---5---4---4---|-1---1---1---1---5------|
|-2---2---------------------------|-----------------3------|
|
| PM----------------------------------------------|
| S S S S S S S S S S S S S S S S   S S S S S S S S q  Q
|---------------------------------|------------------------|
|---------------------------------|------------------------|
|---------------------------------|------------------------|
|---------------------------------|------------------------|
|---------------------------------|-1-1-1-1-1-1-1-1-5------|
|-2-2-2-2-2-2-2-2-2-2-2-2-2-2-2-2-|-----------------3------|


  N.C.
  PM------------------------------------------------------------|
  E   E   E   E   E   E   E   E     E   E   E   E   E   E   E   E
|---------------------------------|----------------------------------|
|---------------------------------|----------------------------------|
|---------------------------------|----------------------------------|
|---------------------------------|-4---4---3---3-----------3---3----|
|---------4---4---5---5---4---4---|-----------------5---5------------|
|-2---2---------------------------|----------------------------------|
|
| PM--------------------------------------------------------------|
| S S S S S S S S S S S S S S S S   S S S S S S S S S S S S S S S S
|---------------------------------|----------------------------------|
|---------------------------------|----------------------------------|
|---------------------------------|----------------------------------|
|---------------------------------|----------------------------------|
|---------------------------------|-1-1-1-1-1-1-1-1------------------|
|-2-2-2-2-2-2-2-2-2-2-2-2-2-2-2-2-|-----------------1-1-1-1-1-1-1-1--|


                                                    G5
  PM--------------------------------------------|
  E   E   E   E   E   E   E   E     E   E   E   E   q  Q
|---------------------------------|-----------------------|
|---------------------------------|-----------------------|
|---------------------------------|-----------------------|
|---------------------------------|-----------------------|
|---------4---4---5---5---4---4---|-1---1---1---1---5-----|
|-2---2---------------------------|-----------------3-----|
|
| PM----------------------------------------------|
| S S S S S S S S S S S S S S S S   S S S S S S S S q  Q
|---------------------------------|-----------------------|
|---------------------------------|-----------------------|
|---------------------------------|-----------------------|
|---------------------------------|-----------------5-----|
|---------------------------------|-1-1-1-1---------5-----|
|-2-2-2-2-2-2-2-2-2-2-2-2-2-2-2-2-|---------0-0-0-0-3-----|


   [03:39:20]
    F#5 C#5 D5  C#5   F#5 E#5 D5  E#5   F#5 C#5 D5  C#5   Bb5     G5
    Gtrs III, IV
    PM------------------------------------------------------------------|
    E E E E E E E E   E E E E E E E E   E E E E E E E E   E E E E E E E E
||------------------|-----------------|-----------------|------------------||
||o-----------------|-----------------|-----------------|-----------------o||
||------------------|-6-6-5-5-----5-5-|-----------------|------------------||
||------6-6-7-7-6-6-|-4-4-3-3-7-7-3-3-|-----6-6-7-7-6-6-|------------------||
||o-4-4-4-4-5-5-4-4-|---------5-5-----|-4-4-4-4-5-5-4-4-|-8-8-8-8-5-5-5-5-o||
||--2-2-------------|-----------------|-2-2-------------|-6-6-6-6-3-3-3-3--||


 Guitar Lead 2 [03:50:45]
  F#5  C#5  D5   C#5   F#5  E#5  D5     E#5
  Gtrs III, IV
   PM-----------------------------------------
   E E  E E  E E E E    E E  E E   E  E E  E
|--------------------|-----------------------|
|--------------------|-----------------------|
|--------------------|--6-6--5-5--------5--5-|
|-------6-6--7-7-6-6-|--4-4--3-3---7--7-3--3-|
|--4-4--4-4--5-5-4-4-|-------------5--5------|
|--2-2---------------|-----------------------|
|
| Gtrs IV, V
|                                  ~~~~    PM-
|  Q    Q    H          Q    Q     Q.      e
|--------------------|-----------------------|
|------15---14-------|-----------------------|
|-11-----------------|-11---14---[13]-----12-|
|--------------------|-----------------------|
|--------------------|-----------------------|
|--------------------|-----------------------|


  F#5   C#5   D5    C#5    Bb5         G5
 ----------------------------------------------|
   E  E  E  E  E  E E  E    E  E  E  E  E E  E E
|------------------------|------------------------|
|------------------------|------------------------|
|------------------------|------------------------|
|--------6--6--7--7-6--6-|------------------------|
|--4--4--4--4--5--5-4--4-|--8--8--8--8--5-5--5-5--|
|--2--2------------------|--6--6--6--6--3-3--3-3--|
|
|----|                 PM-------------------|
|  e  e  E  E  Q.      e    e  e  e  e  e e  E E
|------------------------|------------------------|
|------------------------|------------------------|
|-15-11---------------11-|-14-10------------12-9--|
|-------14-14-12---------|-------14-13----8-------|
|------------------------|-------------10---------|
|------------------------|------------------------|


  F#5  C#5  D5   C#5           F#5  E#5        D5   E#5
   PM----------------------------------------------------
   E E  E E  E E  E     E       E E   E      E  E E E E
|----------------------------|--------------------------|
|----------------------------|--------------------------|
|----------------------------|--6-6---5------5------5-5-|
|-------6-6--7-7--6-----6----|--4-4---3------3--7-7-3-3-|
|--4-4--4-4--5-5--4-----4----|------------------5-5-----|
|--2-2-----------------------|--------------------------|
|
|                                               ~~
|  Q    Q    Q    S  S  S  S    Q    +S   E.    H
|----------------------------|--------------------------|
|-----------14---13h14p13h14-|-13---(13)-14----13-------|
|-11---14--------------------|--------------------------|
|----------------------------|--------------------------|
|----------------------------|--------------------------|
|----------------------------|--------------------------|


                          Q=163
  F#5   C#5   D5    C#5     Bb5        G#5
 ---------------------------|          PM----|
   E  E  E  E  E  E  E  E    q     Q   E E E E
|-------------------------|--------------------|
|-------------------------|--------------------|
|-------------------------|--------------------|
|--------6--6--7--7--6--6-|--------------------|
|--4--4--4--4--5--5--4--4-|--8---------6-6-6-6-|
|--2--2-------------------|--6---------4-4-4-4-|
|
|  E  E  E  E  E  E  E  E    E  E  E E H
|-------------------------|--------------------|
|-------14-14-15-15-14-14-|-11-14-11-----------|
|-11-11-------------------|--------------------|
|-------------------------|--------------------|
|-------------------------|--------------------|
|-------------------------|--------------------|


   [04:02:00]
    Q=160
    N.C.
    Gtrs III, IV
    S S S S S S S S S S S S S S S S   S S S S S S S S S S S S S S S S
||----------------------------------|---------------------------------|
||o---------------------------------|---------------------------------|
||----------------------------------|---------------------------------|
||----------------------------------|---------------------------------|
||o-5-5-5-5-------------------------|---------5-5-5-5-4-4-4-4---------|
||----------4-4-4-4-7-7-7-7-7-7-7-7-|-7-7-7-7-----------------7-7-7-7-|


                                   1.,2.,3.
                                    PM----------------------------|
  S S S S S S S S S S S S S S S S   S S S S S S S S S S S S S S S S   4x
|---------------------------------|-----------------------------------||
|---------------------------------|----------------------------------o||
|---------------------------------|-----------------------------------||
|---------------------------------|-----------------------------------||
|-5-5-5-5-------------------------|----------------------------------o||
|---------4-4-4-4-7-7-7-7-7-7-7-7-|-3-3-3-3-3-3-3-3-3-3-3-3-3-3-3-3---||


   [04:24:55]
    4.
                            BbA5                    G#A5F#5   F#5
    PM--------------------------------------------------|
    S S S S S S S S S S S S E E   S S S S S S S S E E E E  4x q  H.
||------------------------------|--------------------------||----------*|
||o-----------------------------|-------------------------o||----------*|
||------------------------------|--------------------------||----------*|
||------------------------------|--------------------------||-4--------*|
||o-------------------------8-7-|-------------------6-7-4-o||-4--------*|
||--3-3-3-3-3-3-3-3-3-3-3-3-6-5-|-2-2-2-2-2-2-2-2-2-4-5-2--||-2--------*|


Duration Legend
---------------
W - whole; H - half; Q - quarter; E - 8th; S - 16th; T - 32nd;
X - 64th; a - acciaccatura
+ - note tied to previous; . - note dotted; .. - note double dotted
Uncapitalized letters represent notes that are staccato (1/2 duration)
Irregular groupings are notated above the duration line
Duration letters will always appear directly above the note/fret number
it represents the duration for.  Duration letters with no fret number below them
represent rests.
Multi-bar rests are notated in the form Wxn, where n is the number of bars to
rest for.  Low
melody durations appear below the staff

Tablature Legend
----------------
 h   - hammer-on
 p   - pull-off
 b   - bend
 pb  - pre-bend
 r   - bend release (if no number after the r, then release immediately)
 /\  - slide into or out of (from/to "nowhere")
 s   - legato slide
 S   - shift slide
  - natural harmonic
[n]  - artificial harmonic
n(n) - tapped harmonic
 ~   - vibrato
 tr  - trill
 T   - tap
 TP  - trem. picking
 PM  - palm muting
\n/  - tremolo bar dip; n = amount to dip
 \n  - tremolo bar down
 n/  - tremolo bar up
/n\  - tremolo bar inverted dip
 =   - hold bend; also acts as connecting device for hammers/pulls
 <>  - volume swell (louder/softer)
 x   - on rhythm slash represents muted slash
 o   - on rhythm slash represents single note slash

Misc Legend
-----------
 |  - bar
||  - double bar
||o - repeat start
o|| - repeat end
*|  - double bar (ending)
 :  - bar (freetime)
 $  - Segno
 &  - Coda
Tempo markers -  = BPM(8/16=s8/s16),
where s8 = swing 8ths, s16 = swing 16ths
comments
We did not receive enough feedback on this tab! Please rate:
print report bad tab
1 2 3 4 5
I want to post or [tab]
guest
You may want to rate the tab now too:
select rating
Please do not post tabs as comments. Select "correction" instead!