Oops, an error
Loading. Please wait.

Demon Days Bass Tab

ver1
ver1

Album

Interactive

More versions @911Tabs.com
8,674 views 9 this week
13 commentsread comments
1 2 3 4 5
worth learning
x 4
add to favorites launch autoscroll
font size
0
reset
Autoscroll
+/-
esc
set tempo
stop
Contributor
WARNING: You are trying to view
                                    content from Ultimate-Guitar.com
                                    in an unauthorized application,
                                    which is prohibited.

                                    Please use an official Ultimate
                                    Guitar Tabs application for iPhone,
                                    iPad or Android to access legitimate
                                    chords, guitar, bass, and drum tabs
                                    from Ultimate-Guitar.com database.

                                    Type "ultimate guitar tabs" in Apple
                                    App Store's or Android Market's
                                    search to find the application.
This Is The Entire Demon Days Album for bass!

1. Intro
2. Last Living Souls
3. Kids With Guns
4. O Green World
5. Dirty Harry
6. Feel Good Inc.
7. El Manana
8. Every Planet We Reach Is Dead
9. November Has Come
10. All Alone
11. White Light
12. DARE
13. Fire Coming Out Of A Monkeys Head
14. Don't Get Lost In Heaven
15. Demon Days




1. Intro

There is no bass line



2. Last Living Souls
Tuning EADG or DADG do it whatever way sounds best to you.

Intro Are we the last, livin' souls?

G|--------|--------|--------|--------|
D|--------|--------|--------|--------|
A|33------|--------|33------|--------|
E|--------|33------|--------|33------|

G|--------|--------|--------|--------|
D|--------|--------|--------|--------|
A|33------|--------|33------|--------|
E|--777-7-|3355-5-3|--------|3355-5-3|

Just a law, and we begin, to sing a song,

G|--------|--------|--------|--------|
D|--------|--------|--------|--------|
A|--------|--------|--------|--------|
E|09999-9-|05555-3-|09999-9-|05555-3-|

And it grows

G|--------|--------|--------|--------|
D|--------|--------|--------|--------|
A|--------|--------|--------|--------|
E|--9-----|--9-----|--9-----|--9-----|

Second 'are we the last living souls'(2x)

G|--------|--------|--------|--------|
D|--------|--------|--------|--------|
A|33------|--------|33------|--------|
E|--777-7-|3355-5-3|--------|3355-5-3|


Are we the last, to get away?

G|--------|--------|--------|--------|
D|--------|--------|--------|--------|
A|--------|--------|--------|--------|
E|09999---|0555-5--|09999---|0555-5--|

(Do we know?)

G|--------|--------|--------|--------|
D|--------|--------|--------|--------|
A|--------|--------|--------|--------|
E|--9-----|--9-----|--9-----|--9-----|

Third are we the last livin' souls?(2x)

G|--------|--------|--------|--------|
D|--------|--------|--------|--------|
A|33------|--------|33------|--------|
E|--777-7-|3355-5-3|--------|3355-5-3|

Get up, get up, get up, get up...

G|--------|--------|--------|--------|
D|--------|--------|--------|--------|
A|--------|--------|--------|--------|
E|012-----|09------|012-----|09------|

The intro basically just repeats itself from here on, except for...

The last few seconds of the song

G|--------|--------|--------|--------|
D|--------|--------|--------|--------|
A|--------|--------|--------|--------|
E|121212--|555-----|121212--|555-----|




3. Kids With Guns
Tuning EADG

Intro/Verse
 
G|-------------------------|  
D|-------------------------|  
A|----------7-7-5-5--------|  
E|-7-7--5-5----------------|  

End Verse Bit
 
G|------------------------------------------------|  
D|-------------------9-9-----9-9------------------|  
A|------------------------------------------------|  
E|-7-7-7--7-7-7--7-7-----7-7-----7-6-5-4-3-2-1-0--|  


End bit

 (Listen for timing)
G|-----4--------------------|  
D|-------4-2----------------|  
A|-2-4-------4-2--4-2-------|  
E|--------------------------|



4. O Green World
Tuning EADG


Into/verse
G|----------------------------------| 
D|----------------------------------|  
A|------------------5--5--5-5-------|  
E|-5-0-4-0-3-2-1-0------------------|

Middle Part  
G|-----------------------------------------------------------------|  
D|-----------------------------------------------------------------|  
A|-5-5-5-5-3-5---8-8-8-8-5-8--10-10-10-10-8-10--12-12-12/-0-0-0-3-5| 
E|-----------------------------------------------------------------|

Keyboard bit 
G|-------------------------|      G-------------------------|
D|-5-5-5-3--5-5-5-3--------|or... D-17-17-17-15--17-17-17-15|
A|-------------------------|      A-------------------------|
E|-------------------------|      E-------------------------|
    Then
G|--------------------------|       G|---------------------------------|
D|--------------------------| or... D|---------------------------------|
A|-0-0-0-3-5----------------|       A|-12-12-12-15-17------------------|
E|--------------------------|       E|---------------------------------|



5. Dirty Harry

Main Riff
G|--------------------------|  
D|--------------------------|  
A|--------------------------|  
E|--7--10--13--13-10-7------|x4

After you play the main riff 4 times,end with this...
G|----------
D|----------
A|----------
E|-3-2-1----

Interlude (Listen for timing)
G|------------------------------------|  
D|------------------------------------|  
A|--1/4—-4/8--8/4--4/8--8/4--3-2-1----|  
E|------------------------------------|


6. Feel Good Inc.
Tuning EADG

G--------------------------|
D--------------------------|
A---------------0-0-3-2----|
E-0-0-2-3-8-7~----------3-0|

  Bridge
|----------------|----------------|
|----------------|----------------|
|----------------|----------------|
|-12-10--7--3--0-|-0--0-0-x-0-x-0-|


7. El Manana
Tuning DADG

Intro/Outro
G|--------------------------------------------------------------------|
D|--------------------------------------------------------------------|
A|-0-0-0-0-0-0-0-0----------------------------------------------------|
D|------------------3-3-3-3-3-3-3-3--1-1-1-1-1-1-1-1--0-0-0-0-0-0-0-0-| 

Verse 1
G|---------------------------------------------------------|
D|---------------------------------------------------------|
A|-0-0-0-0-0-0---------------------------------------------|
D|-----------------3-3-3-3-3-3---1-1-1-1-1-1---0-0-0-0-0-0-|

G|------------------------|
D|------------------------|
A|-0-0-0--0—0-0-----------|
D|------------------------|

Verse 2
G|-------------------------------------|
D|-------2-2---------------------------|
A|-0-0-0-----0-0--------2-3-2----------|
D|----------------33--3-------3--------|

Verse 3
G|----------------------------------------------------------|
D|----------------------------------------------------------|
A|-0-0-0-0-0-0----------------------------------------------|
D|------------------3-3-3-3-3-3---1-1-1-1-1-1---0-0-0-0-0-0-|

Order
Intro x4
Verse1 x1
Verse2 x2
Short Bass Break
Verse3 x2
Verse2 x4
Short Bass Break
Verse2 x2
Short Bass Break
Verse3 x2
Verse2 x4
Outro x Until End



8. Every Planet We Reach Is Dead
Tuning EADG


Intro/Outro
You can figure out where this goes
G|----------------------------------------------------|
D|----------------------------------------------------|
A|----------------------------------------------------|
E|-12-12-7-10/12---7-10/12~~-5-3-0--------------------|


  
  I lost my leg like I lost my way 
G|----------------------------------|
D|----------------------------------|
A|----------------------------------|
E|0---------------------------------|
   
   So no loose ends
G|----------------------------------|
D|----------------------------------|
A|----0-----------------------------|
E|----------------------------------| 
                  
Nothing to see me down
G|----------------------------------|
D|----------------------------------|
A|----------------2-----------------|
E|----------------------------------| 
         
How are we going to work this out? 
G|----------------------------------|
D|----------------------------------|
A|---------3------------------------|
E|---------------------------------0|
  
  Dreams are bad, our heads are mad
G|----------------------------------|
D|----------------------------------|
A|------------------0---------------|
E|0---------------------------------|
  
I love the girl
G|----------------------------------|
D|----------------------------------|
A|0---------------------------------|
E|----------------------------------| 

But God only knows it's
 
   
   Getting hard to see the sun coming through 
G|-----------------------------------------|
D|-----------------------------------------|
A|-2----------------------------------0----|
E|-----------------------------------------|
        
I love you...
G|----------------------------------|
D|----------------------------------|
A|-----2----------------------------|
E|----------------------------------| 
                             
But what are we going to do?
G|----------------------------------|
D|----------------------------------|
A|----------------------------------|
E|---------------------------0------|
 
  
  Picture i'm a dreamer
G|----------------------------------|
D|----------------------------------|
A|----------------------------------|
E|0---------------------------------|
 
  
  I'll take you deeper
G|----------------------------------|
D|----------------------------------|
A|0---------------------------------|
E|----------------------------------| 
C                   
Down to the sleepy glow 
G|----------------------------------|
D|----------------------------------|
A|-----------------0----------------|
E|----------------------------------|
   
  Time is a low..
G|----------------------------------|
D|----------------------------------|
A|2---------3-----------------------|
E|----------------------------------| 
          
Don't you know?
G|----------------------------------|
D|----------------------------------|
A|--------2-------------------------|
E|----------------------------------| 
                         
What are we going to do? 

  
  When you go back
G|----------------------------------|
D|----------------------------------|
A|----------------------------------|
E|0---------------------------------|
 
  
  All the second selfless days
G|----------------------------------|
D|----------------------------------|
A|0---------------------------------|
E|----------------------------------| 
  
  You're in love with him 
G|----------------------------------|
D|----------------------------------|
A|2---------------------------------|
E|----------------------------------|
C
I want to see you again
 
       
I love you... 
G|----------------------------------|
D|----------------------------------|
A|-----2----------------------------|
E|----------------------------------|
                             
But what are we going to do?
G|----------------------------------|
D|----------------------------------|
A|----------------------------------|
E|---------------------------0------| 

  x8
G|----------------------------------|
D|----------------------------------|
A|---0-0--2-------------------------|
E|0---------------------------------|

This isent the exact bass line. But the basic notes of the line.



9. November Has Come
Tuning EADG

-Intro
G|--------|--------|--------|--------|
D|--------|--------|--------|--------|
A|--------|--------|--------|--------|
E|12------|12--55--|012-55--|12--55--|


-Verses (Repeated through whole song)
G|--------|--------|--------|--------|
D|--------|--------|--------|--------|
A|--------|--------|--------|--------|
E|12--55--|12--55--|12--55--|12--55--|


10. All Alone
Tuning EADG

Verse
G|---------------------------------------------|
D|---------------------------------------------|
A|---------------------------------------------|
E|--3/14\3/14\3/14\3/10\8\6/8------------------|

Then there is this part. The main riff of the song.

G|---------------------------------------------|
D|---------------------------------------------|
A|------9-8-7---------7-7----7-6-5-------------|
E|--7-7-------10-7-7------5-5------8-5-5-7-9-7-|





11. White Light
Tuning EADG


[00:09] INTRO
G|-----------------------------|
D|-----------------------------|
A|-------0000-2----------------|
E|-----------------------------| x1

[00:11] MAIN RIFF
G|--------------------------------|
D|--------------------------------|
A|--------------5--5-7------------| 
E|----0-0------7--7-7-------------| x3

[00:21]
G|-----------------------------|
D|-----------------------------|
A|-------0000-2----------------|
E|-----------------------------| x1

[00:23] Break 1 x3

[00:34]
G|-----------------------------|
D|-----------------------------|
A|-------0000-2----------------|
E|-----------------------------| x1

[00:35] MAIN RIFF
G|--------------------------------|
D|--------------------------------|
A|--------------5--5-7------------| 
E|----0-0------7--7-7-------------| x3

[00:46]
G|-----------------------------|
D|-----------------------------|
A|-------0000-2----------------|
E|-----------------------------| x1

[00:48] MAIN RIFF
G|--------------------------------|
D|--------------------------------|
A|--------------5--5-7------------| 
E|----0-0------7--7-7-------------| x3

[00:59]
G|-----------------------------|
D|-----------------------------|
A|-------0000-2----------------|
E|-----------------------------| x1

[01:00]Break 2
 
[01:28] Riff 2 
G|----------------------|
D|----------------------|
A|----------------2-----|
E|--0-0-0-0-3-3-5-------| x3

[01:39] Break 3 

[01:40]
G|-------------------------------------|
D|-------------------------------------|
A|----------------2--------------------|
E|--0-0-0-0-3-3-5----0-0-0-0--3-3-5-3--| until the end



12. DARE
Tuning DADG
repeat though out song.
G|------------------------------------------------------------------|
D|------------------------------------------------------------------| 
A|------------------------------------------------------------------|
D|--5----0--5----0--5----0--5----0--8----0--8----0--5----0--5----0--|



13. Fire Coming Out Of A Monkeys Head
Tuning EADG

MAIN RIFF
G|-----------------------------|
D|-----------------------------|
A|-----------------------------|
E|-5~-3~-5~--------------------|

Riff 2 (Then One Day Strange Folk...)
G|-----------------------------|
D|-----------------------------|
A|-----------------------------|
E|-5~-3~-1~-0~-0~-1~-3~-5~-----|

During The Part 2-D Sings (Softly) 
G|-----------------------------|
D|-----------------------------|
A|-----------------------------|
E|-5~-3~-5~--------------------|

MAIN RIFF (In Time Strange Folk Found Their Way..)
G|-----------------------------|
D|-----------------------------|
A|-----------------------------|
E|-5~-3~-5~--------------------|

Riff 2  (They Covered the Jewls In This Cave...)
G|-----------------------------|
D|-----------------------------|
A|-----------------------------|
E|-5~-3~-1~-0~-0~-1~-3~-5~-----| X2


MAIN RIFF  (Digging Away At Their Soles..)
G|-----------------------------|
D|-----------------------------|
A|-----------------------------|
E|-5~-3~-5~--------------------|

The End Part Where 2-D Sings Again You Can Hear an A note twice...
G|-----------------------------|
D|-----------------------------|
A|-----------------------------|
E|-5~--------------5~----------|




14. Don't Get Lost In Heaven


There isent a bass line.


15. Demon Days

You'll here the bass line kick in and it goes like...
 1:48 It very soft so listen up for it!
G------------------------|-----------------------|
D-12-12-12-12-10-10-10-10|12-12-12-12------------|
A------------------------|------------10-10-10-10|
E------------------------|-----------------------|



And thats it!!
Hope you have fun!

Enjoy! ^_^
comments
print report bad tab
13 comments total. Showing first comments.
-1 reply
carrotcake wrote on July 12 2007, 10:15 pm

the album's called "Demon Days" not "Demon Days Album" lol

-1 reply
DSOTM wrote on September 7 2007, 04:29 pm

OMG this is terrible. Can you even play bass? I don't profess to be excellent but you've gotta be pretty tone-deaf to think that this is correct. The only 2 songs you came close to geting right were Dare and White Light. IMO this is the best album ever written and you come along with this rubbish. Learn to play bass before you submit pile's of poo like this.

-1 reply
DSOTM wrote on September 7 2007, 04:30 pm

Incredibly inaccurate!!!

I want to post or [tab]
guest
You may want to rate the tab now too:
select rating
Please do not post tabs as comments. Select "correction" instead!