Oops, an error
Loading. Please wait.

Demon Days Tab

ver1
ver1

Album

Solo

Whole song

Interactive

More versions @911Tabs.com
19,961 views 18 this week
12 commentsread comments
1 2 3 4 5
accurate
x 24
Autoscroll
+/-
esc
set tempo
stop
Contributor
Difficulty
novice
Hey! There's an official Ultimate Guitar app which is ideal
for learning songs when you're away from computer. Get the app
WARNING: You are trying to view
                                    content from Ultimate-Guitar.com
                                    in an unauthorized application,
                                    which is prohibited.

                                    Please use an official Ultimate
                                    Guitar Tabs application for iPhone,
                                    iPad or Android to access legitimate
                                    chords, guitar, bass, and drum tabs
                                    from Ultimate-Guitar.com database.

                                    Type "ultimate guitar tabs" in Apple
                                    App Store's or Android Market's
                                    search to find the application.
Artist: Gorillaz
Album: Demon days

one of the best albums in the world. here it is:

NOTE: SOME SONGS ARE DIVIDED IN GUITAR 1, GUITAR 2 AND SOMETIMES GUITAR 3 AND GUITAR 4

Order:
1.- Intro
2.- Last Living Souls
3.- Kids With Guns
4.- O Green World
5.- Dirty Harry
6.- Feel Good Inc.
7.- El Manana
8.- Every Planet We Reach Is Dead
9.- November Has Come
10.- All Allone
11.- White Light
12.- Dare
13.- Fire Coming Out Of The Monkey’s Head
14.- Don’t Get Lost In Heaven
15.- Demon Days

\Slide down
/slide up
•••••••••••
1.- Intro •
•••••••••••

e|------------------------------------------------|
B|------------------------------------------------|
G|------------------------------------------------|  (A lot of times)
D|------------------------------------------------|
A|--------------3-----7-----6-----5-----4-----3-2-|
E|-----2--5--2-----2-----2-----2-----2-----2------|


••••••••••••••••••••••••
•2.- Last Living Souls •
••••••••••••••••••••••••

Intro:     
e|----------------------------|
B|----------------------------|
G|----------------------------|  
D|----------------------------|
A|---3-3---0-0---3-3---0-0----|
E|-------------3------------3-|

Verse:

(1st part)
e|--19-19----19-19-19----19-17-17----17-17-17----17--|
B|--------17----------17----------17----------17-----|
G|---------------------------------------------------|  
D|---------------------------------------------------|
A|---------------------------------------------------|
E|---------------------------------------------------|

(2nd part)
e|-15-15-15----15-15-15----|
B|----------15----------15-|
G|-------------------------|
D|-------------------------|
A|-------------------------|
E|-------------------------|


chorus:

      C         G
Cause all I had sung
   A#              F
I got it down and wrong
   F#m           G   
I see myself to get
  C    E     F    C
Lord, seeing all now
 A#              A
Can you take us in
     B                C#
The part that coming on
C#
The coldest man doesn't see it's all

Violins
e|----------------------------------|
B|----------------------------------|
G|----------------------------------| (play it until the end of the song)
D|----------------------------------|
A|---3-3---3-3-3---3-1-1---1-1-1----|
E|-------1-------1-------1-------1--|

Order:
Intro x4
Verse (1st part) x2
Verse (2nd part) x4 
Verse (1st part) x4
Verse (2nd part) x4
Verse (1st part) x2
Verse (2nd part) x4
Chorus
Violins

•••••••••••••••••••••
•3.- Kids With Guns •
•••••••••••••••••••••

---------
guitar 1
---------

Intro: 
e|-----------------------|
B|-----------------------|
G|-----------------------| 
D|-----------------------|   
A|-------------7-7--5-5--|
E|---7-7--5-5------------|

intro's 2nd part
e|-----------------|
B|-----------------|
G|-----------------|
D|-----------------|
A|-----------------|
E|--7-7-7---7-7-7--|

intro's 3rd part:
e|------------------------------------|
B|------------------------------------|
G|------------------------------------|
D|------------------------------------|
A|------7-7-----7-7--7-6-5-4-3-2-1-0--|
E|--5-5-----5-5-----------------------|

outro:
e|-------------------------|
B|-------------------------|
G|-------------------------|
D|--9--9--9--9--9--9--9--9-|
A|--9--9--9--9--9--9--9--9-|
E|--7--7--7--7--7--7--7--7-|

Guitar 1 Order:
Intro x7
intro's 2nd part
intro's 3rd part
intro x3
intro's 2nd part
silence
intro x7
intro's 2nd part
silence
intro x12
silence
outro x5

---------
Guitar 2                    
---------

intro :
e|------------------------------------------------------|
B|------------------------------------------------------|
G|------------------------------------------------------|
D|---(same as the 1st 2nd and 3rd part of guitar one)---|
A|------------------------------------------------------|
E|------------------------------------------------------|

verse:
e|-------------------------------------|
B|-------------------------------------|
G|--4--4-----2--2-----9--9-----7--7----| 
D|--4--4-0---2--2-0---9--9-0---7--7-0--|
A|--2--2-0---0--0-0---7--7-0---5--5-0--|
E|-------------------------------------|

Guitar 2 chorus: 
e|-----------------------------------------------|
B|-----------------------------------------------|
G|--------------------------9-----------7--------| 
D|--9-----------7--------------9-----9-----7-----|
A|-----9-----9-----7-----7--------7-----------5--|
E|--------7-----------5--------------------------|

Guitar 2 Order:
Intro x1
verse x3
chorus x4
silence
chorus x4
silence
chorus x4
verse x8
chorus (repeat until the end of the song)

••••••••••••••••••••
4.- O Green World  • 
••••••••••••••••••••
In this one I didn't put what the keyboards do between the intro and the chorus.  Sorry!
---------
Guitar 1
---------
Intro:
e|--------------------------------------------------------|
B|--12/13--12/13---12-12/13--12-12/13--12-12/13--12-12/13-|
G|--------------------------------------------------------|
D|--------------------------------------------------------|
A|--------------------------------------------------------|
E|--------------------------------------------------------|

riff 1
e|--------15------------15-----|
B|--12-13----13--12-13-----13--|
G|-----------------------------| 
D|-----------------------------|
A|-----------------------------|
E|-----------------------------|

chorus:
e|--------------------------------------------------------|
B|--------------------------------------------------------|
G|----------------------------55-55-55-55--77-777---------|
D|--55-55-55-55--88-88-88-88--55-55-55-55--77-777--44-44--|
A|--55-55-55-55--88-88-88-88--33-33-33-33--55-555--44-44--|
E|--33-33-33-33--66-66-66-66-----------------------22-22--|

Guitar 1 order:
Intro
riff 1 x3
silence (keyboards)
chorus x5
silence (key boards)
chorus x6

---------
Guitar 2
---------
chorus:
e|--10----10----10----10------10----10-12-10-8--5--0--1--3---|
B|-----10----10----10----10------10--------------------------|
G|-----------------------------------------------------------|
D|-----------------------------------------------------------|
A|-----------------------------------------------------------|
E|-----------------------------------------------------------|

and continues
--7---7---7---7---7----7-10-12-10-9-5--|
----8---8---8---8----8-----------------|
---------------------------------------|
---------------------------------------|
---------------------------------------|
---------------------------------------|

Guitar 2 Order:
silence (intro and key boards)
chorus x5
silence (key boards)
chorus x7

••••••••••••••••
5.- Dirty Harry•
••••••••••••••••

Intro  
e|-----------------------------------------------------------------------|
B|-----------------------------------------------------------------------|
G|-----11-9--11-9--11-9----11-9--11------------11-14-11--4-7-9--11-9-11--|
D|--10------------------10----------11--9-7-4----------------------------|
A|-----------------------------------------------------------------------|
E|-----------------------------------------------------------------------|

riff 1
e|---------------------------------------|
B|---------------------------------------|
G|---------------------------------------|  
D|---------------------------------------| 
A|--2-2---5-5---9-9---14-12-12--7-5-4-2--|   
E|---------------------------------------|

Violins
e|-----------------------------------------------------|
B|-----------------------------------------------------|
G| ----------------------------------------------------| 
D|--9-7-6-5-4-5--9-7--2-4-7-5-4-5-----0-5-0-5-0-5-0-5--|
A|---------------------------------4-------------------|
E|-----------------------------------------------------|

outro:
e|-----------------------|
B|-----------------------|
G|-----------------------|
D|-----------------------|
A|---2--5--9----7--5--2--|
E|-----------------------|

Order:
Intro x4
riff 1 x4
intro x2
riff 1 x4
silence (drums and bass)
violins 
silence (first rap verse)
violins x3
riff 1 x4
outro

••••••••••••••••••••
6.- Feel Good Inc. •
••••••••••••••••••••

---------
Guitar 1
---------
riff 1 (Following the bass):
e|---------------------------------|
B|---------------------------------|
G|---------------------------------|
D|---------------------------------|
A|-----------3-2----0--0-3-2-------|
E|--0--0-2-3-----------------2--0--|

Guitar1 Order:
riff 1 x8
silence (acoustic guitar chorus)
riff 1 x6
silence (acoustic guitar chorus)
riff 1 x4

---------
Guitar 2
---------
riff 1 (electric guitar)
e|--12--12---10-10----8--------------|
B|----12------------8---4--4/6--6\4--|
G|-----------------------------------|
D|-----------------------------------|
A|-----------------------------------|
E|-----------------------------------|

Guitar 2 order:
riff 1 x8
silence
riff 1 x6
silence
riff 1 x4

---------
Guitar 3
---------

chorus (acoustic chords):

D#m               C#
Windmill Windmill for the land
 Bm          C#
Love forever hand in hand
 D#m            C#   
Take it all in on your stride
 Bm             C#
It is ticking, falling down
D#m           C#
Love forever love is free
      Bm           C#
Let’s turn forever you and me
D#m               C#
Windmill Windmill for the land
   Bm        C#
Is everybody in?

---------
Guitar 4
---------
chorus (acoustic guitar) at the same time as guitar 3

    D#m       C#      Bm      C#
e|--7-5-7-5-7-7-5-7-5-7-5-7-5-7-5-7-5-3--|
B|---------------------------------------|
G|--7-5-7-5-7-7-5-7-5-7-5-7-5-7-5-7-5-3--|
D|---------------------------------------|
A|---------------------------------------|
E|---------------------------------------|

•••••••••••••••
7.- El Manana •
•••••••••••••••

--------------------
Guitar 1 (keyboards)
--------------------

riff 1:
e|-12-0---10-0---8-0---7-0--|
B|--------------------------|
G|--------------------------|
D|--------------------------|
A|--------------------------|
E|--------------------------|



riff 2 (keyboards when the chellos are playing):
e|--12----12----10----10----8----8----7---7---0---0---3---3---1--1--0--0---|
B|-----13----13----12----12---10---10---9---9---1---1---0---0---1--1--0--0-|
G|-------------------------------------------------------------------------|
D|-------------------------------------------------------------------------|
A|-------------------------------------------------------------------------|
E|-------------------------------------------------------------------------|

Guitar 1 0rder:
riff 1 x4
silence (verse)
riff 1 x4
silence (verse)
riff 1 x4
riff 2 (repeat until the end of the song)

--------------------------
Guitar 2 (acoustic chords)
--------------------------

verse:
Am            G             F
Summer don't know me no more
        E        Am
He got mad, tiresome 
Am             G         
Summer don't know me 
     F           E      Am 
He just left me low in myself 
          Bm            Am
Because I do know love from you then
      Bm Dm
Just dying 

Chorus:
Am    G        F   E     
   I saw that day 
Am    G       F    E
   I lost my mind 
Am  G        F     E
   Lord I'm fine 
Am           G           F   E    
   Maybe in time you'll wa-a-ant to be mine?

2nd verse: 
Am              G            F
Don't stop the buck when it comes
          E            Am 
It's the dawn, you'll see 
Am           G    
Money won't get there
      F           E           Am 
Ten years passed and you'll flee 
    Bm             Am           
If you do it then I'll be strong
    Bm   Dm 
To find you 

I saw that day 
I lost my mind 
Lord I'm fine 
Maybe in time you'll want to be mine.


I saw that day, 
I Lost my mind 
Lord, I'm fine 
Maybe in time you'll want to be mine.

•••••••••••••••••••••••••••••••••••
8.- Every Planet We Reach Is Dead •
•••••••••••••••••••••••••••••••••••
---------
Guitar 1
---------

riff 1:
e|--12-12-12-10-12---12-10-12-----------|
B|-----------------------------10--8--5-|
G|--------------------------------------|
D|--------------------------------------|
A|--------------------------------------|
E|--------------------------------------|

1st Verse (following the bass):
e|---------------------------------------------------|
B|---------------------------------------------------|
G|---------------------------------------------------|
D|---------------------------------------------------|
A|--7-7-5----3-3-2--1-1-1-1-1-1-1-1-2-2-2-1-1-1-1-1--|
E|---------------------------------------------------|

2nd verse (following the bass)
e|-------------------------------------------------------------------------|
B|-------------------------------------------------------------------------|
G|-------------------------------------------------------------------------|
D|-------------------------------------------------------------------------|
A|-7-7-5--3-3-2--1-1-1-1-1-1-1-1-2-2-2-2-2-2-2-2-1-1-1-1-1-1-1-1-2-2-2-2-2-|
E|-------------------------------------------------------------------------|

riff 2:
e|--12-12-12-12---12-15-12-10-12-------------|
B|--------------------------------10\8--8-5--|
G|-------------------------------------------|
D|-------------------------------------------|
A|-------------------------------------------|
E|-------------------------------------------|

3rd verse:
e|-----------------|
B|-----------------|
G|-----------------|
D|-----------------|
A|----(silence)----|
E|-----------------|

instrumental:
e|-----------------|
B|-----------------|
G|-----------------|
D|-----------------|
A|-----------------|
E|---5--5--5--3-5--|

Instrumental 2:
e|-------------------------------------------------------------|
B|-------------------------------------------------------------|
G|-------------------------------------------------------------|
D|-------------------------------------------------------------|
A|--------------------------------------------5-----5---7-5-7--|
E|-5--5--5--3-5---5--5--5-3-5---5--5--5--3-5-----7-----7-------|

piano:
e|---------------------|
B|---------------------|
G|--0-0-2-0--5-2-0-0-2-|
D|---------------------|
A|---------------------|
E|---------------------|

Guitar 1 Order:
Riff 1 x4
silence 
1st verse 
riff 1 x2
2nd verse 
riff 1 x3
riff 2
3rd verse (until it stops the verse in guitar 2)
instrumental x5
instrumental 2 x4
piano x8
instrumental 2 x3

---------
Guitar 2
---------

riff 1 (following the bass):
e|----------------------------|
B|----------------------------|
G|----------------------------|
D|----------------------------|
A|--7-7---5-7---5-7-----------|
E|------7-----7------5--3--0--|

1st verse:
E          D          C      Bm
I lost my leg like I lost my way
   Am  
So no loose ends
                   Bm
Nothing to see me down
            Am
How are we going to work this out?

2nd Verse :
E              D        C         Bm
Dreams aren't bad, our heads are mad
   Am    
I love the girl, But God only knows it's
Bm                                 
getting harder to see the sun coming
 Am 
through
         Bm
I love you...
         Bm
But what are we going to do?

3rd verse :
E              D
Picture I'm a dreamer
C              Bm
I'll take you deeper
 Am                Bm
Down to the sleepy glow
D          C
Time is a low
           Bm 
Don't you know... What are we going to do?

E,D,C,Bm,Am,Bm,Am,Bm

instrumental:
e|--------------|
B|--------------|
G|-1--1--1--0-1-|
D|-2--2--2--0-2-|
A|-2--2--2--0-2-|
E|-0--0--0--0-0-|

Guitar 2 Order:
riff 1 x6
1st verse
riff 1 x2
2nd verse
riff 1 x4
3rd verse
instrumental x9
riff 1 x4
instrumental x3

•••••••••••••••••••••••
9.- November Has Come •
•••••••••••••••••••••••

Verse (silence):

Slow it down some
No split clown bum
Your gold hit sound dumb
Hold it now!!! Crown 'Em
Where you found them at?
Got 'em 'round town
Could've drowned in it
Woulda floated bloated
Voted sugar coated
Loaded hip shooter
Draw for the poor
Free coffee at the banks
yip through the straw
None more for me, thanks
That blanks the raw
That dang sure stank lit
Sank passed the pit for more hardcore prank spit

riff 1:
e|-----------------------------|
B|-----12----------------------|
G|-----------------------------|
D|--9-----9---7---7---7--7/10--|
A|-----------------------------|
E|-----------------------------|

riff 2:
e|-------------------------------------|
B|-------------------------------------|
G|-------------------------------------|
D|--7--5---2--0------------------------|
A|---------------3--5--3--5--3-7--3-7--|
E|-------------------------------------|

riff 3:
e|---------------5/10--4/9--|
B|--------------------------|
G|--------------------------|
D|--7--5---2--0-------------|
A|--------------------------|
E|--------------------------|

Order:
verse
riff 1 x4
riff 2 
riff 3
riff 2
riff 3
riff 2 x3
riff 3
riff 2
riff 3
riff 2
riff 3
riff 2 
riff 3

••••••••••••••••
10.- All Alone •
••••••••••••••••

riff 1:
e|----------------------------------------------|
B|----------------------------------------------|
G|----------------------------------------------|
D|----------------------------------------------|
A|-0--0-7-6-5-3--0-0-5-5-------5-4-3-2--2-2-3-5-|
E|------------------------3--3------------------|

chorus:
D, C

D                      C
  Close your eyes and see
                      D
When there ain't no light
                C
All you'll ever be
                  D
Come on save the night
       G          A
'Cause i don't believe
C                   
When the morning comes, it doesn't 
Bm                           A
Seem to say an awful lot to me

outro 1:
e|--5/7-5/7--3----------|
B|-------------3---3--5-|
G|----------------------|
D|----------------------|
A|----------------------|
E|----------------------|

outro 2:
e|--5/7-5/7--3---------------|
B|-------------3--1/3-1/3--1-|
G|---------------------------|
D|---------------------------|
A|---------------------------|
E|---------------------------|

outro 3:
e|--5/7-5/7--3----1/3-1/3--5--|
B|-------------3--------------|
G|----------------------------|
D|----------------------------|
A|----------------------------|
E|----------------------------|

Order:
riff 1 (play until the chorus)
chorus
outro 1
outro 2
outro 1
riff 1 x2
outro 1
outro 3
outro 2

••••••••••••••••••
11.- White Light •
••••••••••••••••••

silence:
e|---------------------|
B|---------------------|
G|---(drums and bass)--|
D|---------------------|
A|---------------------|
E|---------------------|

riff 1:
e|-------------------|
B|-------------------|
G|-------------------|
D|-------------------|
A|-------------------|
E|--777777033333333--|

riff 2:
e|-----------------|
B|-----------------|
G|-----------------|
D|-----------------|
A|-----------------|
E|-777777766665533-|

riff 3:
e|--------------------------------|
B|--------------------------------|
G|--4--------4--------4--------4--|
D|--------------------------------|
A|--------------------------------|
E|--------------------------------|

interlude (acoustic chords):

C,A,C,A,D,E,D,E,D,E,D

Interlude's end
e|-x-x-x-x-x-x-x-x-|
B|-x-x-x-x-x-x-x-x-|
G|-x-x-x-x-x-x-x-x-|
D|-x-x-x-x-x-x-x-x-|
A|-x-x-x-x-x-x-x-x-|
E|-x-x-x-x-x-x-x-x-|

outro:
e|-19-19-19-19-19-19-19-19-19-19-19-19-19-19-19-19-19-19-19-19-19-19-19-
B|----------------------------------------------------------------------
G|----------------------------------------------------------------------
D|----------------------------------------------------------------------
A|----------------------------------------------------------------------
E|----------------------------------------------------------------------

it continues:
-18-18-18-18-18-17-17-15-15-|
----------------------------|
----------------------------|
----------------------------|
----------------------------|
----------------------------|

order:
silence
riff 1 x3
riff 2
riff 1 x3
riff 2
riff 3
interlude
interlude's end
silence
riff 2
outro x2

···········
12.- Dare ·
···········

intro:
it's coming up
it's coming up
it's coming up
it's coming up
it's coming up
it's coming up
it's coming up
it's Dare!

---------
Guitar 1
---------

riff 1
e|----13----12---10---10-|
B|-12----10----8----8----|
G|-----------------------|
D|-----------------------|
A|-----------------------|
E|-----------------------|

riff 2
e|---------------|
B|---------------|
G|--12---10---9--|
D|---------------|
A|---------------|
E|---------------|

Chorus:
e|-------------------------------------------------------------------
B|-15-15-15-15-15-15-15-15-15-15-15-15-15-15-15-15-15-15-15-15-15-15-
G|-------------------------------------------------------------------
D|-------------------------------------------------------------------
A|-------------------------------------------------------------------
E|-------------------------------------------------------------------

it continues:
------------------------------------------------------------------------|
-13-11-13-15-13-11-11-11-11-11-11-11-11-6-8-8-8-8-8-8-8-8-8-8-8-8-8-8-8-|
------------------------------------------------------------------------|
------------------------------------------------------------------------|
------------------------------------------------------------------------|
------------------------------------------------------------------------|

Guitar 1 Order:
riff 1 x2
riff 2
riff 1 x3
riff 2
riff 1 x3
riff 2
riff 1
chorus
riff 1 x2
riff 2
riff 1 x3
riff 2
riff 1 x3
riff 2
riff 1
chorus x2
riff 1 x2
riff 2
riff 1 x3
riff 2
riff 1 x3
riff 2
riff 1 x3
riff 2
riff 1
silence
riff 1 x2
riff 2
riff 1

---------
Guitar 2
---------

riff 1 (following the bass:
e|---------------------------------------|
B|---------------------------------------|
G|---------------------------------------|
D|---------------------------------------|
A|-----------------------5--0-5----------|
E|--5--0-5--0-5--0-5--0----------0-5--0-5|

riff 2:
e|--------------------|
B|----12---9---11---8-|
G|--9----9---9----9---|
D|--------------------|
A|--------------------|
E|--------------------|

guitar 2 order:
riff 1 x3
chorus x8
riff 1 x3
chorus x16
riff 1 x2
riff 2 (played until the end of the song)

···········································
13.- Fire Coming Out Of The Monkey's Head ·
···········································
()-optional

chords:
  Am   G   F   E   E5
e|-0-|-3-|-1-|-0-|-x-|-x-|
B|-1-|-0-|-1-|-0-|-9-|-4-|
G|-2-|-0-|-2-|-1-|-9-|-4-|
D|-2-|-0-|-3-|-2-|-9-|-4-|
A|-0-|-2-|-3-|-2-|-7-|-2-|
E|-0-|-3-|-1-|-0-|-x-|-x-|

riff 1:
e|------5--------5-5-|
B|------5--------5-5-|
G|-------------------|
D|-------------------|
A|--(0)----(0)-------|
E|-------------------|

riff 2:
e|------------------------------------------------------------------
B|------------------------------------------------------------------
G|-------6-------4-------2-------1-------2-------1-------6-------6--
D|-----7-------5-------3-------2-------3-------2-------7-------7----
A|---7-------5-------3-------2-------3-------2-------7-------7------
E|-5-------3-------1-------0-------1-------0-------5-------5--------

it continues:
e|-------------------------------------------------------------------|
B|-------------------------9-------4---------------------------------|
G|--------2-------1------9-------4--------2-------2-------1-------1--|
D|------3-------2------9-------4--------3-------3-------2-------2----|
A|----3-------2------7-------2--------3-------3-------2-------2------|
E|--1-------0-----------------------1-------1-------0-------0--------|

1st chorus:
Am                G             Am            G
hauling out of aeroplanes and hiding out in holes
Am                G              Am            G
Waiting for the sunset to come, people going home
Am               G              Am                G
Jump out from behind them and shoot them in the head
      Am           G         Am            G
Now everybody's dancing the dance of the dead
      Am           G
The dance of the dead
      Am           G
The dance of the dead.


2nd chorus:
       Am            G
Oh, a little town in U.S.A
     F                E
The time has come to see
         F           E          A
There's nothing you believe you are
     F         E            E5       B      F    E
But where were you when it all came down on me

Did you call me now?

Order:
Riff 1 x12
riff 2
1st chorus
riff 1 x17
riff 2
riff 1 x21
2nd chorus

·······························
14.- Don't Get Lost In Heaven ·
·······························

---------
Guitar 1
---------
Verse 1:
A                            
Got off a plane to the country sound
   G
I drove to the mountain and a hole in the ground
            A
There was crack on the corner and someone dead,
     G
and fire coming out of the monkey's head

Chorus:
A                      
Don't get lost in heaven
G
  They got locks on the gate
A
Don't go over the edge
G
  you'll make a big mistake

Verse 2:
A                          
Put me in a cab to suburbia
        G                              
I just took a line but I wasn't with ya
       A
There was more of it there, when I got back home
     G 
But you left me,you don't know my soul

---------
Guitar 2
---------

riff 1 (let ring):
e|--7/9--7------5/7-5--3-5-|
B|-------------------------|
G|-------------------------|
D|-------------------------|
A|-------------------------|
E|-------------------------|

Guitar 2 order:
riff 1 x2
silence (1st verse and chorus)
riff 1 x2
silence (2nd verse)
riff 1 (played until the end of the song)

·················
15.- Demon Days ·
·················

---------
Guitar 1
---------
1st verse:
    A                          
In demon days, it's cold inside
     G
You don't get nobody, people sigh
         A
It's so bad, lasting far, but love yourself
G
 Hiding in a hole in there
A                                  
All the glasses are too big
G
 Bring it back, got to hold it back
A
 To let you do that yet you don't want me back
   G
Before it fall down, falling down falling down
A                               G
Falling out to go far from the sun.

WHILE THE SOLO IS PLAYING:A,G,A,G,A,G,A,G

2nd verse (same chords):
In these demon days it's so cold inside
So hard for a good soul to survive
You can't even trust the air you breathe
Cause Mother Earth wants us all to leave
When lies become reality 
You numb yourself with drugs and TV
Pick yourself up it's a brand new day
So turn yourself round
Don't burn yourself, turn yourself
Turn yourself around into the sun!

3rd verse (same chords)
In these demon days it's so cold inside
So hard for a good soul to survive
You can't even trust the air you breathe
Cause Mother Earth wants us all to leave
When lies become reality 
You numb yourself with drugs and TV
Pick yourself up it's a brand new day
So turn yourself round
Don't burn yourself, turn yourself
Turn yourself around into the sun!

---------
Guitar 2
---------

solo:
e|--12---10---9---7---10---9---7---5---9---7---5---2---0---5--|
B|------------------------------------------------------------|
G|------------------------------------------------------------|
D|------------------------------------------------------------|
A|------------------------------------------------------------|
E|------------------------------------------------------------|

guitar 2 order:
silence (1st Verse)
solo (Play it until the end of the song)

that's all 

ENJOY IT!!!! BUT RATE IT PLEASE 
comments
print report bad tab
12 comments total. Showing first comments. show 1 bad comment
-1 reply
Lost_souls wrote on September 16 2006, 11:20 pm

. . . jerk-off.

+1 reply
iggit wrote on December 15 2006, 04:22 pm

Nice tab - you've helped me out.
Too bad the person that had posted the first comment is 8 years old.

I want to post or [tab]
guest
You may want to rate the tab now too:
select rating
Please do not post tabs as comments. Select "correction" instead!