Oops, an error
Loading. Please wait.

Feel Good Inc Tab

ver7
ver7
More versions @911Tabs.com
12,012 views 18 this week
no commentswrite comment
1 2 3 4 5
accurate
x 3
Autoscroll
+/-
esc
set tempo
stop
Contributor
WARNING: You are trying to view
                                    content from Ultimate-Guitar.com
                                    in an unauthorized application,
                                    which is prohibited.

                                    Please use an official Ultimate
                                    Guitar Tabs application for iPhone,
                                    iPad or Android to access legitimate
                                    chords, guitar, bass, and drum tabs
                                    from Ultimate-Guitar.com database.

                                    Type "ultimate guitar tabs" in Apple
                                    App Store's or Android Market's
                                    search to find the application.
#----------------------------------PLEASE NOTE--------------------------------#
#This file is the author's own work and represents their interpretation of the#
#song. You may only use this file for private study, scholarship, or research.#
#-----------------------------------------------------------------------------#
#-- File created with Instab - http://www.pconline.com/~smcarey/instab.html --#
#-----------------------------------------------------------------------------#

Author/Artist: Gorillaz
Title: Feel Good Inc.

/ slide up
\ slide down
m mute

Acoustic Drop C# Tuning (c# ab db gb bb eb), Down ~ 10%

-|----------------------------------------------------------------------------------|
-|----------------------------------------------------------------------------------|
-|----------------------------------------------------------------------------------|
-|----------------------------------------------------------------------------------|
-|----------------------------------------------------------------------------------|
-|-2--2-4-5--10-9-----7--7-10-9---5-2-----2--2-4-5--10-9-----7--7-10-9---5-2--/14---|
  Intro Bass Arr. Guitar

-----------------------------------------------------------------------------|---------|
-----------------------------------------------------------------------------|---------|
-----------------------------------------------------------------------------|---------|
-----------------------------------------------------------------------------|---------|
-----------------------------------------------------------------------------|---------|
-2--2-4-5--10-9-----7--7-10-9---5-2------2--2-4-5--10-9-----7--7-10-9---5-2--|---------|


--------|------------------------------------------|-----------------------------|
--------|------------------------------------------|-----------------------------|
--------|------------------------------------------|-----------------------------|
--------|------------------------------------------|-----------------------------|
--------|------------------------------------------|-----------------------------|
--------|-2--2-4-5--10-9-----7--7-10-9---5-2--/14--|-----------------------------|
  Verse Arr. Guitar

--------|-12----12--------10----10----8---8---------------|---------------------|
--------|----12--------------12---12----8-----------------|---------------------|
--------|----------12-----------------------9---9-/11-\9--|---------------------|
--------|-------------------------------------------------|---------------------|
--------|-------------------------------------------------|---------------------|
--------|-------------------------------------------------|---------------------|
   Verse/Intro

--------|-----------------------|------------------------------------------------|
--------|-----------------------|------------------------------------------------|
--------|-----------------------|------------------------------------------------|
--------|-----------------------|------------------------------------------------|
--------|-----------------------|------------------------------------------------|
--------|-16-14-9--7-2-2--2--2--|------------------------------------------------|
  Pre Chorus Arr. Guitar



--------|---------------------------------------------------|--|
--------|---------------------------------------------------|--|
--------|-9---9--9--9--7---7-7-7--5---5--5--5--7---7--7--7--|--|
--------|-9-9-9--9--9--9-9-9-9-9--7-7-7--7--7--9-9-9--9--9--|--|
--------|---10-----------9----------7------------9----------|--|
--------|---x------------x----------x------------x----------|--|
  Chorus/Bridge



--------|------------------------------|--------------------------------------|
--------|------------------------------|--------------------------------------|
--------|-7---7--7--7--7---7--7--7--7--|--------------------------------------|
--------|-9-9-9--9--9--9-9-9--9--9--9--|--------------------------------------|
--------|---9------------9-------------|--------------------------------------|
--------|---x------------x-------------|--------------------------------------|
  Chorus Out
comments
We did not receive enough feedback on this tab! Please rate:
1 2 3 4 5
I want to post or [tab]
guest
You may want to rate the tab now too:
select rating
Please do not post tabs as comments. Select "correction" instead!