Oops, an error
Loading. Please wait.

Beware Of Tramps Tab

ver1
ver1

Whole song

Interactive

More versions @911Tabs.com
498 views 1 this week
no commentswrite comment
1 2 3 4 5
please rate
Autoscroll
+/-
esc
set tempo
stop
Contributor
Hey! There's an official Ultimate Guitar app which is ideal
for learning songs when you're away from computer. Get the app
WARNING: You are trying to view
                                    content from Ultimate-Guitar.com
                                    in an unauthorized application,
                                    which is prohibited.

                                    Please use an official Ultimate
                                    Guitar Tabs application for iPhone,
                                    iPad or Android to access legitimate
                                    chords, guitar, bass, and drum tabs
                                    from Ultimate-Guitar.com database.

                                    Type "ultimate guitar tabs" in Apple
                                    App Store's or Android Market's
                                    search to find the application.
#----------------------------------PLEASE NOTE---------------------------------#
#This file is the author's own work and represents their interpretation of the #
#song. You may only use this file for private study, scholarship, or research. #
#------------------------------------------------------------------------------#

                                BEWARE OF TRAMPS
                              As recorded by Gorod
                      (From the 2005 Album Neurotripsticks)

Tabbed By Gorod
Gtr I (D G C F A D) - 'Untitled'


  Q=125
 4/4
  Gtr I
  PM|   PM|   PM|   PM----------------|   PM|   PM|   PM-----------|
  S S S S S S S S S S S S S S S S   S S S S S S S S S S S  S S S S S
|---------------------------------|-----------------------------------|
|---------------------------------|-----------------------------------|
|---------------------------------|-----------------------------------|
|---------------------------------|-----------------------------------|
|-----4-----4-----4---------------|-----4-----4-----4-----------------|
|-3-5---3-5---3-5---3-5-6-5-3-0-3-|-3-5---3-5---3-5---3-5--6-5-3-0-3--|
|
| PM|   PM|   PM|   PM--------------|                            ~
| S S S S S S S S S S S S S S S S   S S E   Q       S S S  S S S E
|---------------------------------|-----------------------------------|
|---------------------------------|-----------------------------------|
|-----6-----6-----6---------------|-------------------7-9-10-9-7------|
|-5-7---5-7---5-7---5-7-8-7-5-0-5-|-5----------------------------8----|
|---------------------------------|-----------------------------------|
|---------------------------------|-----------------------------------|


    PM|   PM|   PM|   PM------------------|   PM|   PM|   PM-----------|
    S S S S S S S S S S S S S S S S  3x S S S S S S S S S S S  S S S S S
||-----------------------------------||------------------------------------||
||o---------------------------------o||-----------------------------------o||
||-----------------------------------||------------------------------------||
||-----------------------------------||------------------------------------||
||o-----4-----4-----4---------------o||-----4-----4-----4-----------------o||
||--3-5---3-5---3-5---3-5-6-5-3-0-3--||-3-5---3-5---3-5---3-5--6-5-3-0-3---||
|
|   PM|   PM|   PM|   PM------------------|   PM|   PM|
|   S S S S S S S S S S S S S S S S  3x S S S S S S S S S S S  S S S E
||-----------------------------------||------------------------------------||
||o---------------------------------o||-----------------------------------o||
||------6-----6-----6----------------||-----6-----6-----6-7-9-10-9-7-------||
||--5-7---5-7---5-7---5-7-8-7-5-0-5--||-5-7---5-7---5-7--------------8-----||
||o---------------------------------o||-----------------------------------o||
||-----------------------------------||------------------------------------||


  PM--------------------|
  T T T T T T T T T T T T T T T T T T T T  T  T  T  T  T  T  T  T  T  T  T  T
|-----------------------------------------------------------------------------|
|-----------------------------------------------------------------------------|
|-----------------------------------------------------------------------------|
|-----------------------------------------------------------------------------|
|-----------------------------------------------------------------------------|
|-3-3-3-3-5-5-5-5-6-6-6-6-5-5-5-5-5-5-5-5--9--9--9--9--9--9--9--9--9--9--9--9-|
|
| PM--------------------|
| T T T T T T T T T T T T T T T T T T T T  T  T  T  T  T  T  T  T  T  T  T  T
|-----------------------------------------------------------------------------|
|-----------------------------------------------------------------------------|
|-----------------------------------------------------------------------------|
|-----------------------------------------------------------------------------|
|-5-5-5-5-7-7-7-7-8-8-8-8-7-7-7-7-7-7-7-7-10-10-10-10-10-10-10-10-10-10-10-10-|
|-----------------------------------------------------------------------------|


  PM|    PM|    PM|    PM----------------
  S  S S S  S S S  S S S  S  S  S S S S
|---------------------------------------|
|---------------------------------------|
|---------------------------------------|
|---------------------------------------|
|------4------4------4------------------|
|-3--5---3--5---3--5---3--5--6--5-3-0-3-|
|
| PM|    PM|    PM|    PM----------------
| S  S S S  S S S  S S S  S  S  S S S S
|---------------------------------------|
|---------------------------------------|
|------9------9------9------------------|
|-8-10---8-10---8-10---8-10-11-10-8-0-8-|
|---------------------------------------|
|---------------------------------------|


 ---|    PM|    PM|    PM-------------|
  S  S S S  S S S  S S S  S  S  S S S S
|---------------------------------------|
|---------------------------------------|
|---------------------------------------|
|---------------------------------------|
|------4------4------4------------------|
|-3--5---3--5---3--5---3--5--6--5-3-0-3-|
|
|---|    PM|    PM|    PM-------------|
| S  S S S  S S S  S S S  S  S  S S S S
|---------------------------------------|
|---------------------------------------|
|------9------9------9------------------|
|-8-10---8-10---8-10---8-10-11-10-8-0-8-|
|---------------------------------------|
|---------------------------------------|


   S  S  S  S  S  S  S  S  S  S  S  S  S  S  S S
|------------------------------------------------|
|------------------------------------------------|
|------------------------------------------------|
|------------------------------------------------|
|-----------5--4-----------4--------4------------|
|--3--5--6--------5--3--5-----3--5-----3--4--3-2-|
|
|  S  S  S  S  S  S  S  S  S  S  S  S  S  S  S S
|------------------------------------------------|
|------------------------------------------------|
|------------------------------------------------|
|----------12-11----------11-------11------------|
|-10-12-13-------12-10-12----10-12----10h11-10s9-|
|------------------------------------------------|


            PM       PM    PM                ~~
   S  S  S  S  S  S  S  S  S  S  S  S  S  S  E
|-------------------------------------------------|
|-------------------------------------------------|
|-------------------------------------------------|
|--------------7--8-----7--------------7--8--7----|
|--------8--------------------8--7--5-------------|
|--3--5-----5--------5-----5----------------------|
|
|           PM       PM    PM                ~~
|  S  S  S  S  S  S  S  S  S  S  S  S  S  S  E
|-------------------------------------------------|
|-------------------------------------------------|
|-------------14h15----14-------------14h15-14----|
|-------15-------------------15-14-12-------------|
|-10s12----12-------12----12----------------------|
|-------------------------------------------------|


   |------6-------|  |------6-------|  |------6-------|  |------6-------|
   S  S  S  S  S  S  S  S  S  S  S  S  S  S  S  S  S  S  S  S  S  S  S  S
|-10p=5-----------5-10p=5-----------5-10p=7-----------7-10p=7-----------7-|
|--------6-----6-----------6-----6-----------9-----9-----------9-----9----|
|-----------7-----------------7----------------10----------------10-------|
|-------------------------------------------------------------------------|
|-------------------------------------------------------------------------|
|-------------------------------------------------------------------------|
|
|  |------6-------|  |------6-------|  |------6-------|  |------6-------|
|  S  S  S  S  S  S  S  S  S  S  S  S  S  S  S  S  S  S  S  S  S  S  S  S
|-17p13----------13-17p13----------17-16p13----------13-16p13----------13-|
|-------15----15----------15----15----------15----15----------15----15----|
|----------14----------------14----------------16----------------16-------|
|-------------------------------------------------------------------------|
|-------------------------------------------------------------------------|
|-------------------------------------------------------------------------|


                                                         ~~
   |------6-------|  |------6-------|  |------6-------|
   S  S  S  S  S  S  S  S  S  S  S  S  S  S  S  S  S  S  Q
|-12p=8-----------8-12p=8-----------8-11p=7-----------7-11----|
|--------8-----8-----------8-----8-----------7-----7----------|
|-----------9-----------------9-----------------8-------------|
|-------------------------------------------------------------|
|-------------------------------------------------------------|
|-------------------------------------------------------------|
|
|                                                        ~~
|  |------6-------|  |------6-------|  |------6-------|
|  S  S  S  S  S  S  S  S  S  S  S  S  S  S  S  S  S  S  Q
|-15p12----------12-15p12----------12-14p11----------11-14----|
|-------13----13----------13----13----------12----12----------|
|----------12----------------12----------------11-------------|
|-------------------------------------------------------------|
|-------------------------------------------------------------|
|-------------------------------------------------------------|


    PM----|   PM--|   PM--------------|   PM--|   PM
    S S S S S S S S E E S S E   S S S S S S S S E E Q
||----------------------------|-------------------------|
||o---------------------------|-------------------------|
||------------------3---------|-----------------3-------|
||--2-2-2-2---2-2-2-2---2-2-2-|-2-2-2-2---2-2-2-2---5---|
||o-2-2-2-2---2-2-2-----2-2-2-|-2-2-2-2---2-2-2-----5---|
||--0-0-0-0---0-0-0---0-0-0-0-|-0-0-0-0---0-0-0---0-3---|


  PM----|   PM--|   PM----|                           ~
  S S S S S S S S E E S S E   S S S S S S S S S S S S Q
|---------------------------|-------------------------------||
|---------------------------|------------------------------o||
|-----------------3---------|-------------------------------||
|-2-2-2-2---2-2-2-2---2-2-2-|-------------------------------||
|-2-2-2-2---2-2-2-----2-2-2-|------------------------------o||
|-0-0-0-0---0-0-0---0-0-0-0-|-3-1-0-4-3-0-5-3-0-5-3-0-6-----||


  S S S S S  S S S S S S S S S S S   S  S S S S S S S S S S S S  S E
|----------------------------------|---------------------------------|
|----------------------------------|---------------------------------|
|----------------------------------|---------------------------------|
|----------------------------------|---------------------------------|
|----------------------------------|---------------------------------|
|-0-5-7-0-6--8-0-5-7-0-4-6-0-5-7-0-|-6--8-0-5-7-0-4-6-0-5-7-0-6--8---|
|
| S S S S S  S S S S S S S S S S S   S  S S S S S S S S S S S S  S E
|----------------------------------|---------------------------------|
|----------------------------------|---------------------------------|
|-0-7-9-0-8-10-0-7-9-0-6-8-0-7-9-0-|-8-10-0-7-9-0-6-8-0-7-9-0-8-10---|
|----------------------------------|---------------------------------|
|----------------------------------|---------------------------------|
|----------------------------------|---------------------------------|


  E. E. E.  E. E. S   +E  E.  E. Q  E E
|-------------------|-------------------|
|-------------------|-------------------|
|-9--8--9--10--9--8-|-(8)-9--10--9--9---|
|-9--8--9--10--9--8-|-(8)-9--10--9--9---|
|-7--6--7---8--7--6-|-(6)-7---8--7--7---|
|-7--6--7---8--7--6-|-(6)-7---8--7--7---|
|
| E. E. E.  E. E. S   +E  E.  E. Q  E E
|-------------------|-------------------|
|-------------------|-------------------|
|-9--8--9--10--9--8-|-(8)-9--10--9--9---|
|-------------------|-------------------|
|-7--6--7---8--7--6-|-(6)-7---8--7--7---|
|-------------------|-------------------|


     S  S S  S  +S  S  S S +S   S  S S  S S  S S
||-----------------------------------------------|
||o----------------------------------------------|
||-----------------------------------------------|
||-----------------------------------------------|
||o--5--3-2--3--(3)-2----2-(2)-----------------2-|
||---------------------5--------5--3-2--0-2--3---|
|
|    S  S S  S  +S  S  S S +S   S  S S  S S  S S
||-----------------------------------------------|
||o----------------------------------------------|
||-----------------------------------------------|
||--12-10-9-10-(10)-9----9-(9)-----------------9-|
||o-------------------12-------12-10-9----9-10---|
||-------------------------------------12--------|


    PM----------|   PM--|    PM--|
  S S S S S S S S S S S S  S S S S
|-----------------------------------|
|-----------------------------------|
|-----------------------------------|
|-----------------------------------|
|-7---------------9-------10--------|
|---0-0-0-0-0-0-0---0-0-0----0-0-0--|
|
|   PM----------|   PM--|    PM--|
| S S S S S S S S S S S S  S S S S
|-----------------------------------|
|-----------------------------------|
|-----------------------------------|
|-----------------------------------|
|-7---------------9-------10--------|
|---0-0-0-0-0-0-0---0-0-0----0-0-0--|


    PM--|   PM--|   PM--|   PM--|     PM----------|   PM--|    PM--|
  S S S S S S S S S S S S S S S S   S S S S S S S S S S S S  S S S S
|---------------------------------|-------------------------------------||
|---------------------------------|------------------------------------o||
|---------------------------------|-------------------------------------||
|---------------------------------|-------------------------------------||
|-5-------3-------2-------3-------|-7---------------9-------10---------o||
|---3-3-3---3-3-3---3-3-3---3-3-3-|---0-0-0-0-0-0-0---0-0-0----0-0-0----||
|
|   PM--|   PM--|   PM--|   PM--|     PM----------|   PM--|    PM--|
| S S S S S S S S S S S S S S S S   S S S S S S S S S S S S  S S S S
|---------------------------------|-------------------------------------||
|---------------------------------|------------------------------------o||
|---------------------------------|-------------------------------------||
|---------------------------------|-------------------------------------||
|-5-------3-------2-------3-------|-7---------------9-------10---------o||
|---3-3-3---3-3-3---3-3-3---3-3-3-|---0-0-0-0-0-0-0---0-0-0----0-0-0----||


            PM                     PM----------|    PM--|    PM--|
  S E S +S  S S S +S  E.   Q     S S S S S S S S  S S S S  S S S S
|-----------------------------|------------------------------------|
|-----------------------------|------------------------------------|
|------------------------/11--|------------------------------------|
|-7-6-6-(6)-6-6-5-(5)-5-------|------------------------------------|
|-7-6-6-(6)-6-6-5-(5)-5---/9--|--7----------------9-------10-------|
|-5-4-4-(4)-4-4-3-(3)-3-------|----0-0-0-0-0-0-0----0-0-0----0-0-0-|
|
|           PM                     PM----------|    PM--|    PM--|
| S E S +S  S S S +S  E.   Q     S S S S S S S S  S S S S  S S S S
|-----------------------------|------------------------------------|
|-----------------------------|------------------------------------|
|------------------------/14--|------------------------------------|
|-7s6-6-(6)-6-6s5-(5)-5-------|------------------------------------|
|-7s6-6-(6)-6-6s5-(5)-5--/12--|-10---------------12-------14-------|
|-5s4-4-(4)-4-4s3-(3)-3-------|----0-0-0-0-0-0-0----0-0-0----0-0-0-|


     PM--|   PM--|   PM--|   PM--|      PM----------|    PM--|    PM--|
   S S S S S S S S S S S S S S S S    S S S S S S S S  S S S S  S S S S
|----------------------------------|------------------------------------|
|----------------------------------|------------------------------------|
|----------------------------------|------------------------------------|
|----------------------------------|------------------------------------|
|--5-------3-------2-------3-------|--7----------------9-------10-------|
|----3-3-3---3-3-3---3-3-3---3-3-3-|----0-0-0-0-0-0-0----0-0-0----0-0-0-|
|
|    PM--|   PM--|   PM--|   PM--|      PM----------|    PM--|    PM--|
|  S S S S S S S S S S S S S S S S    S S S S S S S S  S S S S  S S S S
|----------------------------------|------------------------------------|
|----------------------------------|------------------------------------|
|----------------------------------|------------------------------------|
|----------------------------------|------------------------------------|
|-10-------9-------7-------6-------|-10---------------12-------14-------|
|----8-8-8---8-8-8---8-8-8---8-8-8-|----0-0-0-0-0-0-0----0-0-0----0-0-0-|


   S  S S  S  +S  S  S S +S   S  S S  S S  S S
|----------------------------------------------|
|----------------------------------------------|
|----------------------------------------------|
|----------------------------------------------|
|--5--3-2--3--(3)-2----2-(2)-----------------2-|
|--------------------5--------5--3-2--0-2--3---|
|
|  S  S S  S  +S  S  S S +S   S  S S  S S  S S
|----------------------------------------------|
|----------------------------------------------|
|----------------------------------------------|
|-12-10-9-10-(10)-9----9-(9)-----------------9-|
|-------------------12-------12-10-9----9-10---|
|------------------------------------12--------|


     PM----------|    PM--|    PM--|
   S S S S S S S S  S S S S  S S S S
|--------------------------------------|
|--------------------------------------|
|--------------------------------------|
|--------------------------------------|
|--7----------------9-------10---------|
|----0-0-0-0-0-0-0----0-0-0----0-0-0---|
|
|    PM----------|    PM--|    PM--|
|  S S S S S S S S  S S S S  S S S S
|--------------------------------------|
|--------------------------------------|
|--------------------------------------|
|--------------------------------------|
|-10---------------12-------14---------|
|----0-0-0-0-0-0-0----0-0-0----0-0-0---|


     PM--|   PM--|   PM--|   PM--|      PM----------|    PM--|    PM--|
   S S S S S S S S S S S S S S S S    S S S S S S S S  S S S S  S S S S
|----------------------------------|--------------------------------------|
|----------------------------------|--------------------------------------|
|----------------------------------|--------------------------------------|
|----------------------------------|--------------------------------------|
|--5-------3-------2-------3-------|--7----------------9-------10---------|
|----3-3-3---3-3-3---3-3-3---3-3-3-|----0-0-0-0-0-0-0----0-0-0----0-0-0---|
|
|    PM--|   PM--|   PM--|   PM--|      PM----------|    PM--|    PM--|
|  S S S S S S S S S S S S S S S S    S S S S S S S S  S S S S  S S S S
|----------------------------------|--------------------------------------|
|----------------------------------|--------------------------------------|
|----------------------------------|--------------------------------------|
|----------------------------------|--------------------------------------|
|-10-------9-------7-------6-------|-10---------------12-------14---------|
|----8-8-8---8-8-8---8-8-8---8-8-8-|----0-0-0-0-0-0-0----0-0-0----0-0-0---|


            PM
  S E S +S  S S S +S  E.   Q
|----------------------------||
|----------------------------||
|------------------------/11-||
|-7s6-6-(6)-6-6s5-(5)-5------||
|-7s6-6-(6)-6-6s5-(5)-5---/9-||
|-5s4-4-(4)-4-4s3-(3)-3------||
|
|           PM
| S E S +S  S S S +S  E.   Q
|----------------------------||
|----------------------------||
|------------------------/14-||
|-7-6-6-(6)-6-6-5-(5)-5------||
|-7-6-6-(6)-6-6-5-(5)-5--/12-||
|-5-4-4-(4)-4-4-3-(3)-3------||


                           ~~                       ~~
   S  S  S  S  S  S  S  S  H       E.     E.     E  H
|-------------------------------|------------------------|
|--------------------------5----|--7b8----7b8r===7-------|
|-----------------------4-------|-------------------6----|
|--------------2h=4h=5----------|------------------------|
|-----------2-------------------|------------------------|
|--0h=2h=3----------------------|------------------------|
|
|                          ~~                       ~~
|  S  S  S  S  S  S  S  S  H       E.     E.     E  H
|-------------------------------|------------------------|
|-------------------------17----|-19b20--19b20r=19-------|
|----------------------16-------|------------------18----|
|-------------14h16h17----------|------------------------|
|----------14-------------------|------------------------|
|-12h14h15----------------------|------------------------|


                                                        ~~~
   |------6-------|
   S  S  S  S  S  S  S  S  S  S  S  S  S  S  S  S  E    H.             Q
|----------------------------------------------------|-----------------------|
|-----------------5--7p=5-----8p=5-----7p=5----------|-----------------------|
|--------------5-----------5--------5--------5-------|-----------------------|
|-----------7-----------------------------------7--5-|--4--------------4\----|
|--------7-------------------------------------------|-----------------------|
|--5h=8----------------------------------------------|-----------------------|
|
|                                                       ~~~
|  |------6-------|
|  S  S  S  S  S  S  S  S  S  S  S  S  S  S  S  S  E    H.             Q
|----------------12-14p12----15p12----14p12----------|-----------------------|
|-------------13----------13-------13-------13-------|-----------------------|
|----------14----------------------------------14-12-|-11-------------11\----|
|-------14-------------------------------------------|-----------------------|
|-12h15----------------------------------------------|-----------------------|
|----------------------------------------------------|-----------------------|


    PM------------------------------------
    S S S  S S S  S S  S S  S S S S S  S
||---------------------------------------|
||o--------------------------------------|
||---------------------------------------|
||--2-1-2--3-2-1----1--------------------|
||o---------------3----3-2--3-2-1-2-1----|
||-------------------------------------3-|
|
|   PM------------------------------------
|   S S S  S S S  S S  S S  S S S S S  S
||---------------------------------------|
||o--------------------------------------|
||--9-8-9-10-9-8----8--------------------|
||---------------10---10-9-10-9-8-9-8----|
||o-----------------------------------10-|
||---------------------------------------|


 --------------------------------------|
  S S S  S S  S S  S S S  S S  S  S  S  S
|-------------------------------------------||
|------------------------------------------o||
|-------------------------------------------||
|---------------1----2-1--3-2--4--3--5--4---||
|-2-1-2--3-2--3----3-----------------------o||
|-------------------------------------------||
|
|--------------------------------------|
| S S S  S S  S S  S S S  S S  S  S  S  S
|-------------------------------------------||
|------------------------------------------o||
|---------------8----9-8-10-9-11-10-12-11---||
|-9-8-9-10-9-10---10------------------------||
|------------------------------------------o||
|-------------------------------------------||


    PM--|   PM------------|
    S E S S S S S S S S S S S S S
||--------------------------------|
||o-------------------------------|
||--------------------------------|
||--------------------------------|
||o-------------------------1-2-4-|
||--2-2-2---2-2-2-3-2-0-2-3-------|
|
|   PM--|   PM------------|
|   S E S S S S S S S S S S S S S
||--------------------------------|
||o-------------------------------|
||--------------------------------|
||--------------------------------|
||o-------------------------1-2-4-|
||--2-2-2---2-2-2-3-2-0-2-3-------|


  PM--|   PM--|
                 |-----6------|  |----6-----|
  S E S S S S S  S  S S  S  S S  S S S  S S S
|-----------------------------------------------||
|----------------------------------------------o||
|-----------------------------------------------||
|----------------5p=4p2--5p=4p2-----------------||
|--------------------------------4p2p1--4p2p1--o||
|-2-2-2---2-2-2---------------------------------||
|
| PM--|   PM--|
|                |-----6------|  |----6-----|
| S E S S S S S  S  S S  S  S S  S S S  S S S
|-----------------------------------------------||
|----------------------------------------------o||
|---------------12p11p9-12p11p9-----------------||
|-------------------------------11p9p8-11p9p8---||
|----------------------------------------------o||
|-2-2-2---2-2-2---------------------------------||


 2/4                                 4/4
                                      PM-------|    PM-------|
  |-----6------|  |------6-------|
  S S  S S  S  S  S  S  S  S  S  S    E  S S S S E  E  S S S S E
|----------------------------------||----------------------------|
|----------------------------------||----------------------------|
|--------------------------9h11h12-||----------------------------|
|-----------------8h=9h11----------||-4--4-4-4-4-5--4--4-4-4-4-5-|
|--------7h=9h10-------------------||-4--4-4-4-4----4--4-4-4-4---|
|-6h7h=9---------------------------||-2--2-2-2-2----2--2-2-2-2---|
|
|                                     PM-------|    PM-------|
| |-----6------|  |------6-------|
| S S  S S  S  S  S  S  S  S  S  S    E  S S S S E  E  S S S S E
|-------------------------12h14h15-||----------------------------|
|----------------11h12h14----------||----------------------------|
|--------9h11h12-------------------||----------------------------|
|-8h9h11---------------------------||-4--4-4-4-4----4--4-4-4-4---|
|----------------------------------||-4--4-4-4-4-5--4--4-4-4-4-5-|
|----------------------------------||-2--2-2-2-2----2--2-2-2-2---|


    PM----|   PM----------|   PM|     PM|       PM--|               PM
    S S S S S S S S S S S S S S S S   S S S S S S S S S S S S S S S S 4x
||----------------------------------|---------------------------------||
||o---------------------------------|--------------------------------o||
||----------------------------------|---------------------------------||
||----------5---------------5-----4-|---------------------------------||
||o-----2-4---4-2-------2-4---4-2---|-----2-4-2-------2-4-2-4-5-4-2--o||
||--2-3-----------3-2-3-------------|-2-3-------3-2-3---------------3-||


    S  S S  S  S  S S  S S  S S  S  S  S S  S
||--------------------------------------------|
||o-------------------------------------------|
||--------------------------------------------|
||-------------5--------------------5-------4-|
||o------2--4-----4-2---------2--4-----4-2----|
||--2--3---------------3-2--3-----------------|
|
|   S  S S  S  S  S S  S S  S S  S  S  S S  S
||--------------------------------------------|
||o-----------12-------------------12------11-|
||-------9-11----11-9---------9-11----11-9----|
||--9-10--------------10-9-10-----------------|
||o-------------------------------------------|
||--------------------------------------------|


  S  S S  S S  S S  S S  S S  S  S  S S  S   4x
|--------------------------------------------||
|-------------------------------------------o||
|--------------------------------------------||
|--------------------------------------------||
|------2--4-2---------2--4-2--4--5--4-2-----o||
|-2--3---------3-2--3--------------------3---||
|
| S  S S  S S  S S  S S  S S  S  S  S S  S   4x
|--------------------------------------------||
|-------------------------------------------o||
|------9-11-9---------9-11-9-11-12-11-9------||
|-9-10--------10-9-10-------------------10---||
|-------------------------------------------o||
|--------------------------------------------||


End.

comments
We did not receive enough feedback on this tab! Please rate:
print report bad tab
1 2 3 4 5
I want to post or [tab]
guest
You may want to rate the tab now too:
select rating
Please do not post tabs as comments. Select "correction" instead!