Oops, an error
Loading. Please wait.

Earth Plus Tab

ver1
ver1

Whole song

Interactive

More versions @911Tabs.com
426 views 1 this week
no commentswrite comment
1 2 3 4 5
please rate
Autoscroll
+/-
esc
set tempo
stop
Contributor
Hey! There's an official Ultimate Guitar app which is ideal
for learning songs when you're away from computer. Get the app
WARNING: You are trying to view
                                    content from Ultimate-Guitar.com
                                    in an unauthorized application,
                                    which is prohibited.

                                    Please use an official Ultimate
                                    Guitar Tabs application for iPhone,
                                    iPad or Android to access legitimate
                                    chords, guitar, bass, and drum tabs
                                    from Ultimate-Guitar.com database.

                                    Type "ultimate guitar tabs" in Apple
                                    App Store's or Android Market's
                                    search to find the application.
       #----------------------------------PLEASE NOTE---------------------------------#
       #This file is the author's own work and represents their interpretation of the #
       #song. You may only use this file for private study, scholarship, or research. #
       #------------------------------------------------------------------------------#

                                          EARTH PUS
                                    As recorded by Gorod

Tabbed by Gorod
 
Gtr I (D G C F A D) - 'Untitled'


  Q=220
 6/4
  Gtr I
  PM   PM   PM   PM                                 PM
  Q  E E Q  Q  E E Q    E E E E E E E E E E E E     Q  H    H    Q   4x
|---------------------|-------------------------||-------------------||
|------------------8--|-------------------------||o-----------------o||
|----6---6-----6------|---4-----------5---------||-----6----4----5---||
|---------------------|-----3-----------4-------||-------------------||
|-4----4----4----4----|-2-----2-3-2-3-----3-4-3-||o-0--4----2----3--o||
|---------------------|-------------------------||--0----------------||
|
| Gtr I
| PM   PM   PM   PM                                 PM
| Q  E E Q  Q  E E Q    E E E E E E E E E E E E     Q  H    H    Q   4x
|---------------------|-------------------------||-------------------||
|---------------------|-------------------------||o-----------------o||
|------------------7--|-------------------------||-----6----4----5---||
|----6---6-----6------|---3-----------4---------||-----6----4----5---||
|---------------------|-----2-----------3-------||o-0--4----2----3--o||
|-4----4----4----4----|-1-----1-2-1-2-----2-3-2-||--0--4----2----3---||


  PM   PM   PM   PM
  Q  E E Q  Q  E E Q    E E E E E E E E E E E E
|---------------------|-------------------------|
|------------------8--|-------------------------|
|----6---6-----6------|---4-----------5---------|
|---------------------|-----3-----------4-------|
|-4----4----4----4----|-2-----2-3-2-3-----3-4-3-|
|---------------------|-------------------------|
|
| PM   PM   PM   PM
| Q  E E Q  Q  E E Q    E E E E E E E E E E E E
|---------------------|-------------------------|
|---------------------|-------------------------|
|------------------7--|-------------------------|
|----6---6-----6------|---3-----------4---------|
|---------------------|-----2-----------3-------|
|-4----4----4----4----|-1-----1-2-1-2-----2-3-2-|


  E E E E E E E E E E E E   E E E E E E E E E E E E
|-------------------------|----------------------------|
|-------------------------|----------------------------|
|---6---------5-----------|---4-----------5------------|
|-----5---6-------7-6-5---|-----3-----------4----------|
|-4-----4---4---4-------7-|-2-----2-3-2-3-----3-4-3----|
|-------------------------|----------------------------|
|
| E E E E E E E E E E E E   E E E E E E E E E E E E
|-------------------------|----------------------------|
|-------------------------|----------------------------|
|-------------------------|----------------------------|
|---6---------5-----------|---3-----------4------------|
|-----5---6-------7-6-5---|-----2-----------3----------|
|-4-----4---4---4-------7-|-1-----1-2-1-2-----2-3-2----|


    PM                  PM                    PM-----------------------------|
    Q  H    H    Q   4x Q   H    H    Q   3x  E  E  E  E  E  E  E E  E  E  E E
||-------------------||-------------------||-----------------------------------|
||o-----------------o||------------------o||-----------------------------------|
||-----6----4----5---||----10----7----9---||-10-11-13-11-10--------------------|
||-------------------||-------------------||----------------12-11-9-11-12-11-9-|
||o-0--4----2----3--o||-0---8----5----7--o||-----------------------------------|
||--0----------------||-0-----------------||-----------------------------------|
|
|   PM                  PM                    PM-----------------------------|
|   Q  H    H    Q   4x Q   H    H    Q   3x  E  E  E  E  E  E  E E  E  E  E E
||-------------------||-------------------||-----------------------------------|
||o-----------------o||------------------o||-----------------------------------|
||-----6----4----5---||-----6----4----5---||-----------------------------------|
||-----6----4----5---||-----6----4----5---||--3--4--6--4--3--------------------|
||o-0--4----2----3--o||-0---4----2----3--o||-----------------5--4-2--4--5--4-2-|
||--0--4----2----3---||-0---4----2----3---||-----------------------------------|


  PM   PM   PM   PM
  Q  E E Q  Q  E E Q    E E E E E E E E E E E E
|---------------------|-------------------------|
|------------------8--|-------------------------|
|----6---6-----6------|---4-----------5---------|
|---------------------|-----3-----------4-------|
|-4----4----4----4----|-2-----2-3-2-3-----3-4-3-|
|---------------------|-------------------------|
|
| PM   PM   PM   PM
| Q  E E Q  Q  E E Q    E E E E E E E E E E E E
|---------------------|-------------------------|
|---------------------|-------------------------|
|------------------7--|-------------------------|
|----6---6-----6------|---3-----------4---------|
|---------------------|-----2-----------3-------|
|-4----4----4----4----|-1-----1-2-1-2-----2-3-2-|


  E E E E E E E E E E E E   E E E E E E E E E E E E
|-------------------------|----------------------------||
|-------------------------|----------------------------||
|---6---------5-----------|---4-----------5------------||
|-----5---6-------7-6-5---|-----3-----------4----------||
|-4-----4---4---4-------7-|-2-----2-3-2-3-----3-4-3----||
|-------------------------|----------------------------||
|
| E E E E E E E E E E E E   E E E E E E E E E E E E
|-------------------------|----------------------------||
|-------------------------|----------------------------||
|-------------------------|----------------------------||
|---6---------5-----------|---3-----------4------------||
|-----5---6-------7-6-5---|-----2-----------3----------||
|-4-----4---4---4-------7-|-1-----1-2-1-2-----2-3-2----||


  Q=110
   W                                               H
|-------------------------------------------------------------------------|
|-------------------------------------------------------------------------|
|--6-----------------------------------------------6----------------------|
|--6-----------------------------------------------5----------------------|
|--4-----------------------------------------------4----------------------|
|--4-----------------------------------------------4----------------------|
|
|  S  S  S  S  S  S  S  S  S  S  S  S  S  S  S  S  S  S  S  S  S  S  S  S
|-------------------------------------------------------------------------|
|----14-------13-------------12----------------12-------------14----------|
|-------13-------13----12-------12----13-12----------13-12----------13-12-|
|-11-------11-------11----11-------11-------11----11-------11----11-------|
|-------------------------------------------------------------------------|
|-------------------------------------------------------------------------|


  S  S  S S  S  S S S S S S S  S S S S S  S S S  S S  S S
|---------------------------------------------------------|
|----8-------7----------6------------6-----------8--------|
|-------7-------7---6-----6----7-6--------7-6---------7-6-|
|-5-------5-------5---5-----5------5---5------5----5------|
|---------------------------------------------------------|
|---------------------------------------------------------|
|
| S  S  S S  S  S S S S S S S  S S S S S  S S S  S S  S S
|---------------------------------------------------------|
|---11------10----------9------------9----------11--------|
|------10------10---9-----9---10-9-------10-9--------10-9-|
|-8-------8-------8---8-----8------8---8------8----8------|
|---------------------------------------------------------|
|---------------------------------------------------------|


   6/4                                               2/4
    S S S S S S S S S S S S S S S S S S S S S S S S   S T T S S S S S S
||--------------------------------------------------|--------------------||
||o---5-----4---------3-----------3---------5-------|-------------------o||
||------4-----4---3-----3---4-3-------4-3-------4-3-|--------------------||
||--2-----2-----2---2-----2-----2---2-----2---2-----|--------------------||
||o-------------------------------------------------|-------------------o||
||--------------------------------------------------|-3-3-3-3-3-1-1-1-1--||
|
|   S S S S S S S S S S S S S S S S S S S S S S S S   S T T S S S S S S
||--------------------------------------------------|--------------------||
||o---8-----7---------6-----------6---------8-------|-------------------o||
||------7-----7---6-----6---7-6-------7-6-------7-6-|--------------------||
||--5-----5-----5---5-----5-----5---5-----5---5-----|--------------------||
||o-------------------------------------------------|-------------------o||
||--------------------------------------------------|-3-3-3-3-3-1-1-1-1--||


  S  S  S S  S  S S S S S S S  S S S S S  S S S  S S  S S
|---------------------------------------------------------|
|----8-------7----------6------------6-----------8--------|
|-------7-------7---6-----6----7-6--------7-6---------7-6-|
|-5-------5-------5---5-----5------5---5------5----5------|
|---------------------------------------------------------|
|---------------------------------------------------------|
|
| S  S  S S  S  S S S S S S S  S S S S S  S S S  S S  S S
|---------------------------------------------------------|
|---11------10----------9------------9----------11--------|
|------10------10---9-----9---10-9-------10-9--------10-9-|
|-8-------8-------8---8-----8------8---8------8----8------|
|---------------------------------------------------------|
|---------------------------------------------------------|


 6/4
  S S S S S S S S S S S S S S S S S S S S S S S S
|-------------------------------------------------|
|---5-----4---------3-----------3---------5-------|
|-----4-----4---3-----3---4-3-------4-3-------4-3-|
|-2-----2-----2---2-----2-----2---2-----2---2-----|
|-------------------------------------------------|
|-------------------------------------------------|
|
| S S S S S S S S S S S S S S S S S S S S S S S S
|-------------------------------------------------|
|---8-----7---------6-----------6---------8-------|
|-----7-----7---6-----6---7-6-------7-6-------7-6-|
|-5-----5-----5---5-----5-----5---5-----5---5-----|
|-------------------------------------------------|
|-------------------------------------------------|


    S  S  S S  S  S S  S S  S  S S  S  S S  S S  S  S S  S S  S  S
||------------------------------------------------------------------||
||o----5-------3------------3---------------3------------5---------o||
||--------4-------4----5-------5----4--5---------5--4---------5--4--||
||--2-------2-------2----2-------2-------2----2-------2----2--------||
||o----------------------------------------------------------------o||
||------------------------------------------------------------------||
|
|   S  S  S S  S  S S  S S  S  S S  S  S S  S S  S  S S  S S  S  S
||------------------------------------------------------------------||
||o---12------10-----------10--------------10-----------12---------o||
||-------11------11---12------12---11-12--------12-11--------12-11--||
||--9-------9-------9----9-------9-------9----9-------9----9--------||
||o----------------------------------------------------------------o||
||------------------------------------------------------------------||


 2/4
  S S S S S S S S
|-----------------|
|-----------------|
|-----5-4---4-2---|
|---2-----------5-|
|-3-------5-------|
|-----------------|
|
| S S S S S S S S
|-----------------|
|-----------------|
|-----9-7---7-5---|
|---5-----------9-|
|-7-------9-------|
|-----------------|


  Q=220
 4/4
  PM     PM           PM--|     PM--|        PM--|       PM----|
  e E Q  e E Q      E S S E E E S S E E    E S S E  E  E S S E E
|---------------||----------------------|-------------------------|
|---------------||o---------------------|-------------------------|
|---------------||----------------------|-------------------------|
|-2------2------||----------------------|-------------------------|
|-2------2------||o-7-------7h9-------9h|=10-------10h12----------|
|-0------0------||----0-0-0-----0-0-0---|----0-0-0-------0-0-0-0--|
|
| PM     PM           PM--|     PM--|        PM--|       PM----|
| e E Q  e E Q      E S S E E E S S E E    E S S E  E  E S S E E
|---------------||----------------------|-------------------------|
|---------------||o---------------------|-------------------------|
|---------------||----------------------|-------------------------|
|-2------2------||----------------------|-------------------------|
|-2------2------||o-7-------7h9-------9h|=10-------10h12----------|
|-0------0------||----0-0-0-----0-0-0---|----0-0-0-------0-0-0-0--|


  PM|   PM|    PM    PM
  E E E E E  E E E   E  E E E  E  E  E  E
|------------------|----------------------|
|------------------|----------------------|
|------------------|----------------------|
|------------------|----7-----------10----|
|-----6------9---6-|------6-------9-----9-|
|-5-5---5-5----5---|-5------5s=8----------|
|
| PM|   PM|    PM    PM
| E E E E E  E E E   E  E E E  E  E  E  E
|------------------|----------------------|
|------------------|----------------------|
|------------------|----------------------|
|------------------|---10-----------13----|
|-----9-----12---9-|------9------12----12-|
|-8-8---8-8----8---|-8------8s11----------|


               PM--|        PM--|       PM----|
  E  E  E E  E S S E E    E S S E  E  E S S E E
|----------------------|-------------------------|
|----------------------|-------------------------|
|----------------------|-------------------------|
|-9-------9------------|-------------------------|
|---10------10-------9h|=10-------10h12----------|
|------12------0-0-0---|----0-0-0-------0-0-0-0--|
|
|              PM--|        PM--|       PM----|
| E  E  E E  E S S E E    E S S E  E  E S S E E
|----------------------|-------------------------|
|----------------------|-------------------------|
|----------------------|-------------------------|
|-9-------9------------|-------------------------|
|---10------10-------5h|==7--------7h=9----------|
|------12------0-0-0---|----0-0-0-------0-0-0-0--|


  PM|   PM|   PM    PM|   PM  PM  PM
  E E E E E E E E   E E E E E E E E     E E E E E E E  E    E E E E E E E E
|-----------------|------------------||------------------|------------------|
|-----------------|-----------------o||------------------|------------------|
|-----------------|------------------||-9-0-8-9-0-9-0-12-|-11-0-9-0-8-0-9-0-|
|-----------------|------------------||------------------|------------------|
|-----3-----5---3-|-----6---7---9---o||------------------|------------------|
|-2-2---2-2---2---|-5-5---5---5---5--||------------------|------------------|
|
| PM|   PM|   PM    PM|   PM  PM  PM
| E E E E E E E E   E E E E E E E E     E E E E E E E  E    E E E E E E E E
|-----------------|------------------||-3-0-2-3-0-3-0--7-|--5-0-3-0-2-0-3-0-|
|-----------------|-----------------o||------------------|------------------|
|-----------------|------------------||------------------|------------------|
|-----------------|------------------||------------------|------------------|
|-----3-----5---3-|-----6---7---9---o||------------------|------------------|
|-2-2---2-2---2---|-5-5---5---5---5--||------------------|------------------|


  E E E E E E E E   E E E E E E E E
|-----------------|-----------------|
|-----------------|-----------------|
|-5-0-4-5-0-5-0-8-|-0-5-0-4-5-0-8-0-|
|-----------------|-----------------|
|-----------------|-----------------|
|-----------------|-----------------|
|
| E E E E E E E E   E E E E E E E E
|-----------------|-----------------|
|-----------------|-----------------|
|-----------------|-----------------|
|-2-0-1-2-0-2-0-4-|-0-2-0-1-2-0-4-0-|
|-----------------|-----------------|
|-----------------|-----------------|


 6/4
  ~      PM--| ~      PM--|         PM----------------|
  Q  +E  E E E Q  +E  E E E   E E E S S E E  E E E  E E E
|---------------------------|-------------------------------|
|---------------------------|-------------------------------|
|---------------------------|-------------------------------|
|---------------------------|-------------------------------|
|-7--(7)--------------------|-5s3-3-3-3-5-3--7-5-3----------|
|--------5-7-8-7--(7)-7-8-7-|-----------------------7-5-----|
|
| ~      PM--| ~      PM--|         PM----------------|
| Q  +E  E E E Q  +E  E E E   E E E S S E E  E E E  E E E
|---------------------------|-------------------------------|
|---------------------------|-------------------------------|
|---------------------------|-------------------------------|
|---------------------------|-------------------------------|
|-7--(7)--------------------|-5s3-3-7-7-9-7-10-9-7----------|
|--------5-7-8-7--(7)-7-8-7-|----------------------10-8-----|


                            ~~                               ~~~
   H.         E E E E E E   Q.    E E  E  E  E  E E  E  E    W.
|-------------------------|-------------------------------|--------||
|-------------------------|-------------------------------|--------||
|-11b12------11-9-8-------|------------------8------------|--------||
|-------------------9-----|-------7-------7-----7------10-|-11-----||
|---------------------9-7-|-6-------6--9----------6--9----|--------||
|-------------------------|-------------------------------|--------||
|
|                           ~~                               ~~~
|  H.         E E E E E E   Q.    E E  E  E  E  E E  E  E    W.
|-------------------------|-------------------------------|--------||
|-11b12------10-8-7-------|-------------------------------|--------||
|-------------------8-----|-----------------11------------|-10-----||
|---------------------9-7-|------10------10----10------13-|--------||
|-------------------------|-9-------9-12----------9-12----|--------||
|-------------------------|-------------------------------|--------||


  2.
   PM-----------------------------|     ~~~
   E  E  E  E  E  E  E E  E  E  E E     W.
|-----------------------------------||--------|
|-----------------------------------||--------|
|-10-11-13-11-10--------------------||--------|
|----------------12-11-9-11-12-11-9-||-11-----|
|-----------------------------------||--------|
|-----------------------------------||--------|
|
|  PM-----------------------------|     ~~~
|  E  E  E  E  E  E  E E  E  E  E E     W.
|-----------------------------------||--------|
|-----------------------------------||--------|
|-----------------------------------||--------|
|--3--4--6--4--3--------------------||--------|
|-----------------5--4-2--4--5--4-2-||--4-----|
|-----------------------------------||--------|


     E  E E E E  E E E  E E +Q    4x
||----------0------8------7-(7)---||
||o-------9---9------9-----------o||
||-----10-------10-----10---------||
||--11----------------------------||
||o------------------------------o||
||--------------------------------||
|
|    E  E E E E  E E E  E E +Q    4x
||--------------------------------||
||o------------------------------o||
||----------6------7------6-(6)---||
||--------6---6------6------------||
||o-----4--------4------4--------o||
||---4----------------------------||


  W.                          E E +Q     Q   H.
|---------------------------|------------------------------|
|---------------------------|------------------------------|
|-6-------------------------|-6s4-(4)----4S==9-------------|
|---------------------------|------------------------------|
|-4-------------------------|-4s2-(2)----2S==7-------------|
|---------------------------|------------------------------|
|
| E  E E E E E E E E E +Q     E E  E  E +Q   E  E E E +Q
|---------------------------|------------------------------|
|---------------------------|------------------------------|
|--------6-----7-----6-(6)--|---------6-(6)---------4-(4)--|
|------6---6-----6----------|------6--------------4--------|
|----4-------4-----4--------|---4---------------2----------|
|-4-------------------------|-5--------------2-------------|


                                   PM-------------------|
   H        Q    E  E  +H          E  E  E E  E  E E  E  E  E  E  E
|--------------------------------|----------------------------------|
|--------------------------------|-------------------------10-12-13-|
|-11-------11---12s11-(11)-------|-----------------9-11-12----------|
|--------------------------------|---------9-11-12------------------|
|--9--------9---10s=9--(9)-------|-9-10-12--------------------------|
|--------------------------------|----------------------------------|
|
|  E E E E  E E  Q.        E E E   E  E  E E  E  E E  E  E  E  E  E
|--------------------------2-----|----------------------------------|
|----------------2-----------2---|----------------------------------|
|--------4---------------------4-|---------1----------------4-------|
|------4----4--------------------|-------4----4----------5-----5----|
|----2--------2------------------|----2----------2----3-----------3-|
|--3-----------------------------|-0---------------3----------------|


   ~~                      ~~~
   W         +Q    E  E    H.       E  E  E  E  E  E
|-----------------------|-16-------16-11-------------|
|-14--------(14)--16-14-|----------------14----------|
|-----------------------|-------------------13-------|
|-----------------------|----------------------14-13-|
|-----------------------|----------------------------|
|-----------------------|----------------------------|


         ~~~
   H.    H.     E  E  E  E  E  E  E  S  S  E  E  E  E
|------------|-------------12-16s19-15h19p15------------|
|------------|-------12-16-------------------17---------|
|-------16---|-13-15----------------------------16------|
|------------|-------------------------------------17---|
|-14---------|------------------------------------------|
|------------|------------------------------------------|


      PM--|   PM  PM--------------------------------|
    E E E E E E E E E E E E   E E E E E E E E E E E E
||--------------------------|---------------------------||
||o-------------------------|--------------------------o||
||--------------6-----------|---------------------------||
||--6-------7-------7-6-4---|---------------------------||
||o---4-5-4---4---4-------7-|-6-4-----------4-6-7-6-4--o||
||--------------------------|-----7-5-4-5-7-------------||
|
|     PM--|   PM  PM--------------------------------|
|   E E E E E E E E E E E E   E E E E E E E E E E E E
||--------------------------|---------------------------||
||o-------------9-----------|--------------------------o||
||--8-------9-------9-8-6---|---------------------------||
||----6-7-6---6---6-------9-|-8-6-----------6-8-9-8-6---||
||o-------------------------|-----9-7-6-7-9------------o||
||--------------------------|---------------------------||


      PM--|    PM   PM-------------------------------------|
    E E E E  E E  E E  E E E  E   E E  E E E E  E E E  E E E
||------------------------------|------------------------------||
||o--------------10-------------|-----------------------------o||
||--9-------10--------10-9-7----|------------------------------||
||----7-8-7----7----7--------10-|-9-7-------------7-9-10-9-7---||
||o-----------------------------|-----10-8-7-8-10-------------o||
||------------------------------|------------------------------||
|
|     PM--|    PM   PM-------------------------------------|
|   E E E E  E E  E E  E E E  E   E E  E E E E  E E E  E E E
||------------------------------|------------------------------||
||o-----------------------------|-----------------------------o||
||----------------9-------------|------------------------------||
||--9-------10--------10-9-7----|------------------------------||
||o---7-8-7----7----7--------10-|-9-7-------------7-9-10-9-7--o||
||------------------------------|-----10-8-7-8-10--------------||


 4/4
   Q  Q  Q  Q        W
|--------------|----------||
|--------------|----------||
|--------------|----------||
|--7--5--3--2--|----------||
|--7--5--3--2--|----------||
|--5--3--1--0--|----------||
|
|  Q  Q  Q  Q        W
|--------------|----------||
|--------------|----------||
|-10--------9--|----------||
|-----9--7-----|----------||
|--8--------7--|----------||
|-----7--5-----|----------||


  Q=110
  ~                                                ~~~
  Q  S S S S E E E S S       +E  E S S S S E E E S S
|------------------------||--------------------------|
|------------------------||o-------------------------|
|--------------------3b5-||--(3)---------------------|
|------------------------||--------------------------|
|------------------------||o-------------------------|
|-3--0-0-0-0---0-3-0-----||------0-0-0-0-0---0-3-0-3-|
|
| ~                                                ~~~
| Q  S S S S E E E S S       +E  E S S S S E E E S S
|------------------------||--------------------------|
|------------------------||o-------------------------|
|--------------------7b9-||--(7)---------------------|
|------------------------||--------------------------|
|------------------------||o-------------------------|
|-7--0-0-0-0---0-3-0-----||------0-0-0-0-0---0-3-0-7-|


 ~~~~~
  +E  E S S S S E E E S S
|----------------------------||
|---------------------------o||
|-----------------------3b5--||
|----------------------------||
|---------------------------o||
|-(3)-0-0-0-0-0---0-3-0------||
|
|~~~~~
| +E  E S S S S E E E S S
|----------------------------||
|---------------------------o||
|-----------------------7b9--||
|----------------------------||
|---------------------------o||
|-(7)-0-0-0-0-0---0-3-0------||



End.
comments
We did not receive enough feedback on this tab! Please rate:
print report bad tab
1 2 3 4 5
I want to post or [tab]
guest
You may want to rate the tab now too:
select rating
Please do not post tabs as comments. Select "correction" instead!