Oops, an error
Loading. Please wait.

Gutting Job Tab

ver1
ver1

Solo

Whole song

Interactive

More versions @911Tabs.com
843 views 3 this week
no commentswrite comment
1 2 3 4 5
excellent!
x 2
Autoscroll
+/-
esc
set tempo
stop
Contributor
Hey! There's an official Ultimate Guitar app which is ideal
for learning songs when you're away from computer. Get the app
WARNING: You are trying to view
                                    content from Ultimate-Guitar.com
                                    in an unauthorized application,
                                    which is prohibited.

                                    Please use an official Ultimate
                                    Guitar Tabs application for iPhone,
                                    iPad or Android to access legitimate
                                    chords, guitar, bass, and drum tabs
                                    from Ultimate-Guitar.com database.

                                    Type "ultimate guitar tabs" in Apple
                                    App Store's or Android Market's
                                    search to find the application.
#----------------------------------PLEASE NOTE---------------------------------#
#This file is the author's own work and represents their interpretation of the #
#song. You may only use this file for private study, scholarship, or research. #
#------------------------------------------------------------------------------#

                                  GUTTING JOB
                              As recorded by Gorod
                     (From the 2005 Album Neurotripsticks)

Tabbed By Gorod
Gtr I (D G C F A D) - 'Untitled'

    Q=95
   4/4
    Gtr I
     S  S  S  S  S  S  S  S  S  S  S  S  S  S  S  S
||--------------------------------------------------|
||o-------------------------------------------------|
||--------------------------------------------------|
||--10-------10-------------------------10----------|
||o-----8--------8-----8-----8-----8--------8-----8-|
||---------7--------7-----7-----7-----7--------7----|
|
|    S  S  S  S  S  S  S  S  S  S  S  S  S  S  S  S
||--13----------------------------------13----------|
||o----12----12----12----12----12----12----12----12-|
||--------10----10----10----10----10----------10----|
||--------------------------------------------------|
||o-------------------------------------------------|
||--------------------------------------------------|


     S S S  S S S S S S S S S  S S S S  4x
||--------------------------------------||
||o------------------------------------o||
||--------------------------------------||
||--10-----10-----------------10--------||
||o----8------8---8---8---8------8---8-o||
||-------7------7---7---7---7------7----||
|
|    S S S  S S S S S S S S S  S S S S  4x
||--------------------------------------||
||o------------------------------------o||
||--10-----10------------------9--------||
||-----9------9---9---9---9------9---9--||
||o------7------7---7---7---7------7---o||
||--------------------------------------||


  Q=175
  PM------------------------|       PM--------|         PM-------|
  Q  Q  Q  Q      E E E E E E E E   E E E E E E E E     Q  Q  Q  Q
|-------------||------------------|------------------||-------------|
|-------------||o-----------------|-----------------o||-------------|
|----7--6-----||--------------4---|-------------4s5--||----7--6-----|
|-2--7--6--2--||----6-5---3---4---|---6-5---3---4s5--||-2--7--6--2--|
|-2--5--4--2--||o---6-5---3---2---|---6-5---3---2s3-o||-2--5--4--2--|
|-0--5--4--0--||--0-4-3-0-1-0-----|-0-4-3-0-1-0------||-0--5--4--0--|


      PM------------|   PM----|   PM--------|   PM---------------|
    E S S E E S S S S E S S   E E E E S S S S E S S     Q  Q  Q  Q
||--------------------------|------------------------||------------|
||o-------------------------|-----------------------o||------------|
||--------------------------|------------------------||----7--6----|
||--------------------------|------------------------||-2--7--6--2-|
||o-------------------------|-----------------------o||-2--5--4--2-|
||--4-0-0-0-0-0-0-0-0-4-0-0-|-0-4-0-0-0-0-0-0-4-0-0--||-0--5--4--0-|


  PM----------------------------|   PM----|
  S S E E S S E E S S E   E S S E E S S S S E E
|-----------------------|-----------------------|
|-----------------------|-----------------------|
|-----------------------|-----------------------|
|-----------------------|-----------------------|
|-----------------------|-------------------4---|
|-6-6-5-0-6-6-5-0-6-6-5-|-0-6-6-5---0-2-3-3-----|
|
|                                   PM----|
|         W                   H     S S S S E E
|-----------------------|-----------------------|
|-----------------------|-------------------5---|
|-----------------------|-----------0-2-3-3-----|
|-----------------------|-----------------------|
|-----------------------|-----------------------|
|-----------------------|-----------------------|


    PM----------------------------|   PM----|
    S S E E S S E E S S E   E S S E E S S S S E
||------------------------|---------------------|
||o-----------------------|---------------------|
||------------------------|---------------------|
||------------------------|---------------------|
||o-----------------------|-------------------4-|
||--6-6-5-0-6-6-5-0-6-6-5-|-0-6-6-5---0-2-3-3---|


  PM----------------------------|   PM----|
  S S E E S S E E S S E   E S S E E S S S S E E
|-----------------------|-----------------------|
|-----------------------|-----------------------|
|-----------------------|-----------------------|
|-----------------------|-----------------------|
|-----------------------|-------------------4---|
|-6-6-5-0-6-6-5-0-6-6-5-|-0-6-6-5---0-2-3-3-----|


  PM----------------------------|   PM----|
  S S E E S S E E S S E   E S S E E S S S S E E
|-----------------------|------------------------||
|-----------------------|-----------------------o||
|-----------------------|------------------------||
|-----------------------|------------------------||
|-----------------------|-------------------4---o||
|-6-6-5-0-6-6-5-0-6-6-5-|-0-6-6-5---0-2-3-3------||
|
| PM----------------------------|   PM------|
| S S E E S S E E S S E   E S S E E S S S S E E
|-----------------------|------------------------||
|-----------------------|-------------------5---o||
|-6-6-5-0-6-6-5-0-6-6-5-|-0-6-6-5---0-2-3-3------||
|-----------------------|------------------------||
|-----------------------|-----------------------o||
|-----------------------|------------------------||


                             2/4             4/4
    PM----|                   PM------|       PM------|
    S S S S E E S S E E E  3x S S S S E E     S S S S E E S S  E  E E  4x
||-------------------------||-------------||---------------------------||
||o-----------------------o||-------------||o-------------------------o||
||-------------------------||-------------||---------------------------||
||-------------------------||-------------||---------------------------||
||o---------4-------5-3-4-o||---------4---||o---------4--------5--3-4-o||
||--0-2-3-3-----0h2--------||-0-2-2-3-----||--0-2-3-3-----0-2----------||
|
|   PM----|                   PM------|       PM----|     PM
|   S S S S E E S S E E E  3x S S S S E E     S S S S E E E E +Q       4x
||-------------------------||-------------||---------------------------||
||o---------5-------4-3---o||---------5---||o-------------------------o||
||--0-2-3-3-----0h2-----5--||-0-2-2-3-----||----------------7-(7)------||
||-------------------------||-------------||----------------6-(6)------||
||o-----------------------o||-------------||o---------4-----5-(5)-----o||
||-------------------------||-------------||--0-2-3-3-----0------------||


                        Bb
 2/4           4/4
                             ~         ~
  S S S S E E   S S S S H    Q    +Q   H     Q
|-------------|-----------------|--------------|
|-------------|-----------------|--------------|
|-------------|--------------7--|-(7)--3-----9-|
|-------------|-----------------|--------------|
|---------4---|---------1----5--|-(5)--1-----7-|
|-0-2-3-3-----|-0-2-3-3---------|--------------|
|
|                            ~~~~~~~~~       ~~~
| S S S S E E   S S S S H    Q    +Q   H     Q
|-------------|-----------------|--------------|
|---------5---|---------5----6--|-(6)-------/8-|
|-0-2-3-3-----|-0-2-3-3---------|------3-------|
|-------------|-----------------|--------------|
|-------------|-----------------|--------------|
|-------------|-----------------|--------------|


        ~~~~~~~~
  +Q    H     Q     +Q    H     Q
|----------------|----------------|
|----------------|----------------|
|-(9)--14----12--|-(12)--10-----9-|
|----------------|----------------|
|-(7)--12----10--|-(10)---8-----7-|
|----------------|----------------|
|
|~~~~~        ~~          ~~~
| +Q    H     Q     +Q    H.
|----------------|----------------|
|-(8)--\5-----6--|--(6)-----------|
|----------------|--------3-------|
|----------------|----------------|
|----------------|----------------|
|----------------|----------------|


  Dm
            ~~~~~~~~~~~~~~~~~~~~~~               ~~~~~~~~~~~~~~~~~~~~~~
  E E E   E H         H         H      E E E   E H         H         H
|------------------|-----------------|------------------|-----------------|
|------------------|-----------------|------------------|-----------------|
|------------------|-----------------|------------------|-----------------|
|-7s6-6s==7-7------|--8-------/11----|-7s6-6s==7-7------|--8-------/11----|
|------------------|-----------------|------------------|-----------------|
|-5s4-4s==5-5------|--6--------/9----|-5s4-4s==5-5------|--6--------/9----|
|
|               ~         ~~                         ~         ~~
| Q   Q     E E Q    +Q   H.           Q   Q     E E Q    +Q   H.
|------------------|-----------------|------------------|-----------------|
|------------------|-----------------|------------------|-----------------|
|-7---6b7r==6------|-----------------|-7---6b7r==6------|-----------------|
|-------------7-8--|-(8)--6----------|-------------7-8--|-(8)--6----------|
|------------------|-----------------|------------------|-----------------|
|------------------|-----------------|------------------|-----------------|


  Gm                   A                  Dm
                                           W          +W
|--------------------|------------------|-----------|----------------------|
|--------------------|------------------|-----------|----------------------|
|--------------------|------------------|--7--------|-(7)------------------|
|--------------------|------------------|--7--------|-(7)------------------|
|--------------------|------------------|--5--------|-(5)------------------|
|--------------------|------------------|-----------|----------------------|
|
|   ~~~~                                   ~~
|   Q.    E  E E E E   E E E E E E E  E    W           E  E  E E  E E  E E
|--------------------|------------------|-----------|----------------------|
|-/11----11-11s8-8s6-|-6s5-5s6-6s8-8s11-|-10--------|-10----10---10---10---|
|--------------------|------------------|-----------|----------------------|
|--/8-----8--8s5-5s3-|-3s2-2s3-3s5-5s=8-|--7--------|-----7----7----7----7-|
|--------------------|------------------|-----------|----------------------|
|--------------------|------------------|-----------|----------------------|


     S  S  S  S  S  S  S  S  S  S  S  S  S  S  S  S
||--12p10----10-12p10-12p10----10-12p10-12p10----10-|
||o-------11----------------11----------------11----|
||--------------------------------------------------|
||--------------------------------------------------|
||o-------------------------------------------------|
||--------------------------------------------------|
|
|    S  S  S  S  S  S  S  S  S  S  S  S  S  S  S  S
||--------------------------------------------------|
||o-------------------------------------------------|
||---9p=7-----7--9p=7--9p=7-----7--9p=7--9p=7-----7-|
||---------8-----------------8-----------------8----|
||o-------------------------------------------------|
||--------------------------------------------------|


   S  S  S  S  S  S  S  S  S  S  S  S  S  S  S  S
|-13p10----10-12p10-12p10----10-12p10-12p10----10---||
|-------11----------------11----------------11-----o||
|---------------------------------------------------||
|---------------------------------------------------||
|--------------------------------------------------o||
|---------------------------------------------------||
|
|  S  S  S  S  S  S  S  S  S  S  S  S  S  S  S  S
|---------------------------------------------------||
|--------------------------------------------------o||
|-10p=7-----7--9p=7--9p=7-----7--9p=7--9p=7-----7---||
|--------8-----------------8-----------------8------||
|--------------------------------------------------o||
|---------------------------------------------------||


   S  S  S  S  S  S  S  S  S  S  S  S  S  S  S  S
|-17p13----13-17p13-17p13----13-17p13-17p13----13-|
|-------15----------------15----------------15----|
|-------------------------------------------------|
|-------------------------------------------------|
|-------------------------------------------------|
|-------------------------------------------------|
|
|  S  S  S  S  S  S  S  S  S  S  S  S  S  S  S  S
|-------------------------------------------------|
|-------------------------------------------------|
|-14p10----10-14p10-14p10----10-14p10-14p10----10-|
|-------12----------------12----------------12----|
|-------------------------------------------------|
|-------------------------------------------------|


   S  S  S  S  S  S  S  S  S  S  S  S  S  S  S  S
|-18p13----13-16p13----13-17p13----13-18p13----13---|
|-------15----------15----------15----------15------|
|---------------------------------------------------|
|---------------------------------------------------|
|---------------------------------------------------|
|---------------------------------------------------|
|
|  S  S  S  S  S  S  S  S  S  S  S  S  S  S  S  S
|---------------------------------------------------|
|---------------------------------------------------|
|-15p10----10-13p10----10-14p10----10-15p10----10---|
|-------12----------12----------12----------12------|
|---------------------------------------------------|
|---------------------------------------------------|


   S  S  S  S  S  S  S  S  S  S  S  S  S  S  S  S
|-18p15----15-18p15-18p15----15-18p15-18p15----15-|
|-------17----------------17----------------17----|
|-------------------------------------------------|
|-------------------------------------------------|
|-------------------------------------------------|
|-------------------------------------------------|
|
|  S  S  S  S  S  S  S  S  S  S  S  S  S  S  S  S
|-------------------------------------------------|
|-------------------------------------------------|
|-15p12----12-15p12-15p12----12-15p12-15p12----12-|
|-------14----------------14----------------14----|
|-------------------------------------------------|
|-------------------------------------------------|


   S  S  S  S  S  S  S  S  S  S  S  S  S  S  S  S
|-21p17----17-21p17-21p17----17-21p17-21p17----17---|
|-------20----------------20----------------20------|
|---------------------------------------------------|
|---------------------------------------------------|
|---------------------------------------------------|
|---------------------------------------------------|
|
|  S  S  S  S  S  S  S  S  S  S  S  S  S  S  S  S
|---------------------------------------------------|
|-14p10----10-14p10-14p10----10-14p10-14p10----10---|
|-------12----------------12----------------12------|
|---------------------------------------------------|
|---------------------------------------------------|
|---------------------------------------------------|


     S  S  S  S  S  S  S  S  S  S  S  S  S  S  S  S
||--17p13----13-17p13-17p13----13-17p13-17p13----13-|
||o-------15----------------15----------------15----|
||--------------------------------------------------|
||--------------------------------------------------|
||o-------------------------------------------------|
||--------------------------------------------------|
|
|    S  S  S  S  S  S  S  S  S  S  S  S  S  S  S  S
||--------------------------------------------------|
||o-15p10----10-15p10-15p10----10-15p10-15p10----10-|
||--------12----------------12----------------12----|
||--------------------------------------------------|
||o-------------------------------------------------|
||--------------------------------------------------|


   S  S  S  S  S  S  S  S  S  S  S  S  S  S  S  S
|---------------------------------------------------||
|-15p10----10-15p10-15p10----10-15p10-15p10----10--o||
|-------12----------------12----------------12------||
|---------------------------------------------------||
|--------------------------------------------------o||
|---------------------------------------------------||
|
|  S  S  S  S  S  S  S  S  S  S  S  S  S  S  S  S
|---------------------------------------------------||
|--------------------------------------------------o||
|-14p10----10-14p10-14p10----10-14p10-14p10----10---||
|-------12----------------12----------------12------||
|--------------------------------------------------o||
|---------------------------------------------------||


    PM--------|       PM--------|         PM-------|
    E E E E E E E E   E E E E E E E E     Q  Q  Q  Q
||------------------|------------------||-------------|
||o-----------------|-----------------o||-------------|
||--------------4---|-------------4s5--||----7--6-----|
||----6-5---3---4---|---6-5---3---4s5--||-2--7--6--2--|
||o---6-5---3---2---|---6-5---3---2s3-o||-2--5--4--2--|
||--0-4-3-0-1-0-----|-0-4-3-0-1-0------||-0--5--4--0--|


      PM------------|   PM----|   PM--------|   PM|     ~    PM------------|
    E S S E E S S S S E S S   E E E E S S S S E S S     H    S S S S S S S S
||--------------------------|------------------------||-----------------------|
||o-------------------------|-----------------------o||-----------------------|
||--------------------------|------------------------||-----------------------|
||--------------------------|------------------------||-----------------------|
||o-------------------------|-----------------------o||-3---------------------|
||--4-0-0-0-0-0-0-0-0-4-0-0-|-0-4-0-0-0-0-0-0-4-0-0--||------5-4-3-2-4-3-2-1--|
|
|     PM------------|   PM----|   PM--------|   PM|     ~    PM------------|
|   E S S E E S S S S E S S   E E E E S S S S E S S     H    S S S S S S S S
||--------------------------|------------------------||-----------------------|
||o-------------------------|-----------------------o||-----------------------|
||--------------------------|------------------------||-----------------------|
||--------------------------|------------------------||-----------------------|
||o-------------------------|-----------------------o||-----------------------|
||--4-0-0-0-0-0-0-0-0-4-0-0-|-0-4-0-0-0-0-0-0-4-0-0--||-3----5-4-3-2-4-3-2-1--|


   PM--------|                          PM
   E    S  S  E    E    Q          E    E
|-------------------------------------------|
|-------------------------------------------|
|-------------------------------------------|
|--2----2--2--2-------------------------2---|
|--2----2--2--2-------------------------2---|
|--0----0--0--0-------------------------0---|
|
|  S S  S  S  S S  S S  S  S  S S  S S  S S
|-12p9----------9-12p9----------9-12p9-14p9-|
|------11----11--------11----11-------------|
|---------11--------------11----------------|
|-------------------------------------------|
|-------------------------------------------|
|-------------------------------------------|


        PM---|                PM--|
   E    S  S  E    E    E     S S  E E
|---------------------------------------|
|---------------------------------------|
|---------------------------------------|
|-------2--2--2---------------2-2--2----|
|-------2--2--2---------------2-2--2----|
|-------0--0--0---------------0-0--0----|
|
|  S S  S  S  S S  S S  S  S  S S  E E
|-12p9----------9-12p9----------9-12----|
|------11----11--------11----11---------|
|---------11--------------11------------|
|---------------------------------------|
|---------------------------------------|
|---------------------------------------|


                            3/4
    E S S E E    Q    E E    E S S E E S S S S
|--------------------------|-------------------|
|--------------------------|-------------------|
|--------------------------|-------------------|
|---2-2-2-2-------------2--|---2-2-2-2-2-2-2-2-|
|---2-2-2-2-------------2--|---2-2-2-2-2-2-2-2-|
|---0-0-0-0-------------0--|---0-0-0-0-0-0-0-0-|
|
|                            ~~~~~~~~~~
|   |---3---|    |--3---|
|   Q   Q   Q    Q  Q   Q    H       Q
|--------------------------|-------------------|
|--------------/11--9---7--|-------------------|
|--------------------------|-9-------7---------|
|-/11---9---8--------------|-------------------|
|--------------------------|-------------------|
|--------------------------|-------------------|


 4/4
   S  S  S  S  S  S  S  S  S  S  S  S  S  S  S  S
|-18p14----------14-18p14----------14-18p14-19p14-|
|-------17----17----------17----17----------------|
|----------18----------------18-------------------|
|-------------------------------------------------|
|-------------------------------------------------|
|-------------------------------------------------|


   S  S  S  S  S  S  S  S  S  S  S  S  E E
|-18p14----------14-18p14----------14-18------|
|-------17----17----------17----17------------|
|----------18----------------18---------------|
|---------------------------------------------|
|---------------------------------------------|
|---------------------------------------------|


  S  S  S  S S  S  S  S  S S  S S  S  S  S S
|-9h11h12p11p9-------------------------------|
|--------------12p11h12p11p9----9h11h12p11p9-|
|----------------------------11--------------|
|--------------------------------------------|
|--------------------------------------------|
|--------------------------------------------|


 3/4                                4/4
                                     ~
                      |----6-----|
   S S  S S S  S S S  S S S  S S S   H    H
|----------------------------------|--------|
|----------------------------------|--------|
|-11p9h11p9p8----------------------|--------|
|-------------11p9p8---------------|--------|
|--------------------11p9p7--------|--------|
|---------------------------11p9p7-|-9------|


    PM----|        PM    PM--|     PM--|
    E S S E E Q  E E   E S S E E E S S E E
||-------------------|---------------------|
||o------------------|---------------------|
||-------------------|---------------------|
||--2-2-2-2--------2-|---2-2-2-----2-2-2---|
||o-2-2-2-2--------2-|---2-2-2-----2-2-2---|
||--0-0-0-0--------0-|---0-0-0-----0-0-0---|


                    3/4
  PM----|        PM    PM------------|
  E S S E E Q  E E   E S S E E S S S S    4x
|------------------|----------------------||
|------------------|---------------------o||
|------------------|----------------------||
|-2-2-2-2--------2-|---2-2-2-2-2-2-2-2----||
|-2-2-2-2--------2-|---2-2-2-2-2-2-2-2---o||
|-0-0-0-0--------0-|---0-0-0-0-0-0-0-0----||


    4.                   Q=190
 4/4
    PM------------|
  E S S E E S S S S Q     W                  +W                 4x
|---------------------||-------------------|--------------------||
|---------------------||-------------------|-------------------o||
|---------------------||-------------------|--------------------||
|---2-2-2-2-----------||--2----------------|-(2)----------------||
|---2-2-2-2---------4-||--2----------------|-(2)---------------o||
|---0-0-0-0-0-2-3-3---||--0----------------|-(0)----------------||
|
|   PM------------|
| E S S E E S S S S Q     E E E  E E E E E    E  E E E E E E E  4x
|---------------------||-------------------|--------------------||
|-------------------5-||-------------------|-------------------o||
|-----------0-2-3-3---||-10-----10---------|-----------9--------||
|---2-2-2-2-----------||----9------9---9---|--9----9-----9---9--||
|---2-2-2-2-----------||------7------7---7-|-----7---7-----7---o||
|---0-0-0-0-----------||--0----------------|-(0)----------------||
                          W                  +W


                    PM--------|   PM  PM| ~
     E  E E  E  E E S S S S   E E E E E E Q   4x
||--------------------------|-----------------||
||o-------------------------|----------------o||
||--------------------------|-----------------||
||--10------10--------------|-2---2-----------||
||o-----8-------8-----------|-2---2----------o||
||--------7-------7-0-0-0-0-|-0---0---1-0-3---||
|
|                   PM--------|   PM  PM| ~
|    E  E E  E  E E S S S S   E E E E E E Q   4x
||--------------------------|-----------------||
||o-------------------------|----------------o||
||--12------12--------------|-----------------||
||-----10------10-----------|-2---2-----------||
||o-------8-------8---------|-2---2----------o||
||------------------0-0-0-0-|-0---0---1-0-3---||


                    PM------------|   PM| ~
   H.               S S S S   E E E E E E Q  4x
|---------------------------|----------------||
|---------------------------|---------------o||
|--7b8----------------------|----------------||
|---------------------------|-2---2----------||
|---------------------------|-2---2---------o||
|-------------------0-0-0-0-|-0---0---1-0-3--||
|
|                   PM--------|   PM  PM| ~
|  E    E E  E  E E S S S S   E E E E E E Q  4x
|---------------------------|----------------||
|---------------------------|---------------o||
|-12--------12--------------|----------------||
|------10------10-----------|-2---2----------||
|---------8-------8---------|-2---2---------o||
|-------------------0-0-0-0-|-0---0---1-0-3--||


  Q=140
  PM|   PM------|   PM  PM------|       PM  PM------|   PM  PM------|
  S S S S S S S S S S S S S S S S     S S S S S S S S S S S S S S S S  3x
|---------------------------------||-----------------------------------||
|---------------------------------||o---------------------------------o||
|---------------------------------||-----------------------------------||
|---------------------------------||-----------------------------------||
|---------------------------------||o---------------------------------o||
|-0-0---0-0-0-0-0---0---0-0-0-0-0-||----0---0-0-0-0-0---0---0-0-0-0-0--||


    PM  PM------|
  S S S S S S S S S S S S S S S  S
|-----------------------------------|
|-----------------------------------|
|-------------------------------(9)-|
|-----------------------------------|
|-----------------------------------|
|---0---0-0-0-0-0-3-1-0-1-4-3-1--0--|


        PM  PM------|   PM  PM------|
    +S  S S S S S S S S S S S S S S S
||------------------------------------|
||o-----------------------------------|
||------------------------------------|
||------------------------------------|
||o-----------------------------------|
||--(0)-0---0-0-0-0-0---0---0-0-0-0-0-|
|
|       PM  PM------|   PM  PM------|
|   +S  S S S S S S S S S S S S S S S
||------------------------------------|
||o-----------------------------------|
||--(9)-------------------------------|
||------------------------------------|
||o-----------------------------------|
||------0---0-0-0-0-0---0---0-0-0-0-0-|


    PM  PM------|
  S S S S S S S S  S  S S  S S  S  S S   8x
|----------------------------------------||
|---------------------------------------o||
|----------------------------------------||
|----------------------------------------||
|---------------------------------------o||
|---0---0-0-0-0-0--3--1-0--1-4--3--1-0---||
|
|   PM  PM------|
| S S S S S S S S  S  S S  S S  S  S S   8x
|----------------------------------------||
|----------------------------9----------o||
|-----------------12-10-9-10---12-10-9---||
|----------------------------------------||
|---------------------------------------o||
|---0---0-0-0-0-0------------------------||


    8.
    PM----------|
  S S S S S S S S  S  S S  S S  S  S  S
|---------------------------------------|
|---------------------------------------|
|---------------------------------------|
|---------------------------------------|
|---------------------------------------|
|---0---0-0-0-0-0--3--1-0--1-4--3--1--1-|
|
|   PM  PM------|
| S S S S S S S S  S  S S  S S  S  S  S
|---------------------------------------|
|----------------------------9----------|
|-----------------12-10-9-10---12-10----|
|------------------------------------10-|
|---------------------------------------|
|---0---0-0-0-0-0-----------------------|


   ~~                            ~
   W           S  S S  S S  S  S S   H
|-----------|----------------------------*|
|-----------|----------------------------*|
|-----------|----------------------------*|
|-----------|----------------------------*|
|-----------|----------------------------*|
|--1--------|--3--1-0--1-4--3--1-0-------*|
|
|  ~~                            ~
|  W           S  S S  S S  S  S S   H
|-----------|----------------------------*|
|-----------|------------9---------------*|
|-----------|-12-10-9-10---12-10-9-------*|
|-10--------|----------------------------*|
|-----------|----------------------------*|
|-----------|----------------------------*|

End.

comments
We did not receive enough feedback on this tab! Please rate:
print report bad tab
1 2 3 4 5
I want to post or [tab]
guest
You may want to rate the tab now too:
select rating
Please do not post tabs as comments. Select "correction" instead!