Oops, an error
Loading. Please wait.

Harmony In Torture Tab

ver1
ver1

Whole song

Interactive

More versions @911Tabs.com
457 views 1 this week
no commentswrite comment
1 2 3 4 5
please rate
Autoscroll
+/-
esc
set tempo
stop
Contributor
Hey! There's an official Ultimate Guitar app which is ideal
for learning songs when you're away from computer. Get the app
WARNING: You are trying to view
                                    content from Ultimate-Guitar.com
                                    in an unauthorized application,
                                    which is prohibited.

                                    Please use an official Ultimate
                                    Guitar Tabs application for iPhone,
                                    iPad or Android to access legitimate
                                    chords, guitar, bass, and drum tabs
                                    from Ultimate-Guitar.com database.

                                    Type "ultimate guitar tabs" in Apple
                                    App Store's or Android Market's
                                    search to find the application.
#----------------------------------PLEASE NOTE---------------------------------#
#This file is the author's own work and represents their interpretation of the #
#song. You may only use this file for private study, scholarship, or research. #
#------------------------------------------------------------------------------#

                                Harmony In Torture
                               As recorded by Gorod
 
Tabbed By Gorod
Gtr I (D G C F A D) - 'Untitled'


 12/8
                                    PM--------------------|
  E S S E E S S E E S S E E S S E   E S S E E S S E E S S E E E E
|---------------------------------|---------------------------------|
|---------------------------------|---------------------------------|
|---------------------------------|-------------------------9-9-9---|
|---------------------------------|---------------------------------|
|---------------------------------|-------------------------7-7-7---|
|-0-0-0-0-0-0-0-0-0-0-0-0-0-0-0-0-|-0-0-0-0-0-0-0-0-0-0-0-0---------|


 12/8
  Gtr I
  PM----|                     PM-------
  E S S E S S S S S S S S S S E E E E
|-------------------------------------|
|-------------------------------------|
|-------------------------------------|
|---------3-3-3-3-3-3-2-2-2-2---4-5---|
|-------------------------------4-5---|
|-0-0-0-0---------------------0-2-3-0-|
|
| PM----|                     PM----|
| E S S E S S S S S S S S S S E E E E
|-------------------------------------|
|-------------------------------------|
|-------------------------------------|
|-------------------------------4-5---|
|---------5-5-5-5-5-5-4-4-4-4---4-5---|
|-0-0-0-0---------------------0-2-3-0-|


 ---------|                     PM----|
    E S S E S S S S S S S S S S E E E E   4x
||----------------------------------------||
||o--------------------------------------o||
||----------------------------------------||
||----------3-3-3-3-3-3-2-2-2-2---4-5-----||
||o-1-----------------------------4-5----o||
||----0-0-0---------------------0-2-3-0---||
|
|     PM--|                     PM----|
|   E S S E S S S S S S S S S S E E E E   4x
||----------------------------------------||
||o--------------------------------------o||
||----------------------------------------||
||--------------------------------4-5-----||
||o-1-------5-5-5-5-5-5-4-4-4-4---4-5----o||
||----0-0-0---------------------0-2-3-0---||


      PM--|                     PM---------
    E S S E S S S S S S S S S S E E E E  4x
||---------------------------------------||
||o-------------------------------------o||
||---------------------------------------||
||----------3-3-3-3-3-3-2-2-2-2---4-5----||
||o-1-----------------------------4-5---o||
||----0-0-0---------------------0-2-3-0--||
|
|     PM--|                     PM---------
|   E S S E S S S S S S S S S S E E E E  4x
||---------------------------------------||
||o-------------------------------------o||
||---------------------------------------||
||--------------------------------4-5----||
||o-4-------5-5-5-5-5-5-4-4-4-4---4-5---o||
||----0-0-0---------------------0-2-3-0--||


 -----------|
  E E E E E E S S S S S S S S S S S S
|--------------------------------------|
|--------------------------------------|
|--------------------------------------|
|-------------3-3-3-3-3-3-3-3-3-3-3-3--|
|--------------------------------------|
|-6-3-0-3-0-1--------------------------|
|
|-----------|
| E E E E E E S S S S S S S S S S S S
|--------------------------------------|
|--------------------------------------|
|--------------------------------------|
|--------------------------------------|
|-------------5-5-5-5-5-5-5-5-5-5-5-5--|
|-6-3-0-3-0-1--------------------------|


                          PM------------------------|
  S S S S S S S S S S S S E S S E E E E   E E E E E E S S S S S S S S S S S S
|---------------------------------------|--------------------------------------|
|---------------------------------------|--------------------------------------|
|---------------------------------------|--------------------------------------|
|-2-2-2-2-2-2-2-2-2-2-2-2---------------|-------------3-3-3-3-3-3-3-3-3-3-3-3--|
|---------------------------------------|--------------------------------------|
|-------------------------6-3-3-0-1-0-1-|-3-1-0-1-0-1--------------------------|
|
|                         PM------------------------|
| S S S S S S S S S S S S E S S E E E E   E E E E E E S S S S S S S S S S S S
|---------------------------------------|--------------------------------------|
|---------------------------------------|--------------------------------------|
|---------------------------------------|--------------------------------------|
|---------------------------------------|--------------------------------------|
|-4-4-4-4-4-4-4-4-4-4-4-4---------------|-------------5-5-5-5-5-5-5-5-5-5-5-5--|
|-------------------------6-3-3-0-1-0-1-|-3-1-0-1-0-1--------------------------|


                          PM------------------------|
  S S S S S S S S S S S S E S S E E E E   E E E E E E S S S S S S S S S S S S
|---------------------------------------|--------------------------------------|
|---------------------------------------|--------------------------------------|
|---------------------------------------|--------------------------------------|
|-2-2-2-2-2-2-2-2-2-2-2-2---------------|-------------3-3-3-3-3-3-3-3-3-3-3-3--|
|---------------------------------------|--------------------------------------|
|-------------------------6-3-3-0-1-0-1-|-6-3-0-3-0-1--------------------------|
|
|                         PM----------|     PM------|
| S S S S S S S S S S S S E S S E E E E   E E E E E E S S S S S S S S S S S S
|---------------------------------------|--------------------------------------|
|---------------------------------------|--------------------------------------|
|---------------------------------------|--------------------------------------|
|---------------------------------------|--------------------------------------|
|-4-4-4-4-4-4-4-4-4-4-4-4---------------|-4-1---1-----5-5-5-5-5-5-5-5-5-5-5-5--|
|-------------------------6-3-3-0-1-0-1-|-----3---0-1--------------------------|


                          PM------------------------|
  S S S S S S S S S S S S E S S E E E E   E E E E E E S S S S S S S S S S S S
|---------------------------------------|--------------------------------------|
|---------------------------------------|--------------------------------------|
|---------------------------------------|--------------------------------------|
|-2-2-2-2-2-2-2-2-2-2-2-2---------------|-------------3-3-3-3-3-3-3-3-3-3-3-3--|
|---------------------------------------|--------------------------------------|
|-------------------------6-3-3-0-1-0-1-|-3-1-0-1-0-1--------------------------|
|
|                         PM------------------------|
| S S S S S S S S S S S S E S S E E E E   E E E E E E S S S S S S S S S S S S
|---------------------------------------|--------------------------------------|
|---------------------------------------|--------------------------------------|
|---------------------------------------|--------------------------------------|
|---------------------------------------|--------------------------------------|
|-4-4-4-4-4-4-4-4-4-4-4-4---------------|-------------5-5-5-5-5-5-5-5-5-5-5-5--|
|-------------------------6-3-3-0-1-0-1-|-3-1-0-1-0-1--------------------------|


                                            2.
                                           4/4
                          PM----------|
  S S S S S S S S S S S S E S S E E E E     S S S S S S S S S S S S S S S S
|----------------------------------------||---------------------------------|
|---------------------------------------o||---------------------------------|
|----------------------------------------||---------------------------------|
|-2-2-2-2-2-2-2-2-2-2-2-2----------------||-2-2-2-2-2-2-2-2-2-2-2-2-2-2-2-2-|
|---------------------------------------o||---------------------------------|
|-------------------------6-3-3-0-1-0-1--||---------------------------------|
|
|                         PM----------|
| S S S S S S S S S S S S E S S E E E E     S S S S S S S S S S S S S S S S
|----------------------------------------||---------------------------------|
|---------------------------------------o||---------------------------------|
|----------------------------------------||---------------------------------|
|----------------------------------------||---------------------------------|
|-4-4-4-4-4-4-4-4-4-4-4-4---------------o||-4-4-4-4-4-4-4-4-4-4-4-4-4-4-4-4-|
|-------------------------6-3-3-0-1-0-1--||---------------------------------|


  S S S S S S S S S S S S S S S S
|---------------------------------|
|---------------------------------|
|---------------------------------|
|-2-2-2-2-2-2-2-2-2-2-2-2-2-2-2-2-|
|---------------------------------|
|---------------------------------|
|
| S S S S S S S S S S S S S S S S
|---------------------------------|
|---------------------------------|
|---------------------------------|
|---------------------------------|
|-4-4-4-4-4-4-4-4-4-4-4-4-4-4-4-4-|
|---------------------------------|


    S S E S S E E E S S E   E E S S E E E S S E  6x
||------------------------|----------------------||
||o-----------------------|---------------------o||
||------------------------|----------------------||
||------------------------|----------------------||
||o-----------------------|-----------8-5-------o||
||--0-0-0-0-0-0---0-0-0-0-|---0-0-0-0-----0-3-6--||
|
|   S S E S S E E E S S E   E E S S E E E S S E  6x
||------------------------|----------------------||
||o-----------------------|---------------------o||
||------------------------|----------------------||
||------------------------|----------------------||
||o-----------------------|-----------8-5-------o||
||--0-0-0-0-0-0---0-0-0-0-|---0-0-0-0-----0-3-6--||


  PM   PM   PM  PM    PM      PM   PM     PM   PM  PM
  E  E E  E E E E E   E E E E E  E E  E   E  E E E E E E E
|-------------------|-------------------|------------------|
|-------------------|-------------------|------------------|
|----9----9---6---3-|---3s6-6----9----9-|----6---3---3s6-6-|
|-------------------|-------------------|------------------|
|----7----7---4---1-|---1s4-4----7----7-|----4---1---1s4-4-|
|-0----0----0---0---|-0-------0----0----|-0----0---0-------|
|
| PM   PM   PM  PM    PM      PM   PM     PM   PM  PM
| E  E E  E E E E E   E E E E E  E E  E   E  E E E E E E E
|-------------------|-------------------|------------------|
|-------------------|-------------------|------------------|
|---12---12---9---6-|---6s9-9---12---12-|---10---6---6s9-9-|
|-------------------|-------------------|------------------|
|---10---10---7---4-|---4s7-7---10---10-|----7---4---4s7-7-|
|-0----0----0---0---|-0-------0----0----|-0----0---0-------|


    E   E  E   E  E  E  E   E   E  E  E   E  E  E  E   E
||----------------------------|---------------------------||
||o---------------------------|--------------------------o||
||------9------9-----9------9-|----6------6-----3------3--||
||----------------------------|---------------------------||
||o-----7------7-----7------7-|----4------4-----1------1-o||
||----------------------------|---------------------------||
|
|   S S E  S S E  E  E  S S E   E  E  S S E  E  E  S S E
||----------------------------|---------------------------||
||o---------------------------|--------------------------o||
||----------------------------|---------------------------||
||----------------------------|---------------------------||
||o---------------------------|--------------8--5--------o||
||--0-0-0--0-0-0-----0--0-0-0-|----0--0-0-0--------0-3-6--||


                                             6/4
                                              PM   PM   PM  PM  PM
    E  E E  E E  E E  E   E E E E E E E E     E  E E  E E E E E E E E E
||----------------------|------------------||-----------------------------||
||o---------------------|-----------------o||----------------------------o||
||-----9----9----9----9-|---6---6---3---3--||----9----9---6---3---3s6-6---||
||----------------------|------------------||-----------------------------||
||o----7----7----7----7-|---4---4---1---1-o||----7----7---4---1---1s4-4--o||
||----------------------|------------------||-0----0----0---0---0---------||
|
|                                             PM   PM   PM  PM  PM
|   E  E E  E E  E E  E   E E E E E E E E     E  E E  E E E E E E E E E
||----------------------|------------------||-----------------------------||
||o---------------------|-----------------o||----------------------------o||
||----12---12---12---12-|---9---9---6---6--||---12---12---9---6---6s9-9---||
||----------------------|------------------||-----------------------------||
||o---10---10---10---10-|---7---7---4---4-o||---10---10---7---4---4s7-7--o||
||----------------------|------------------||-0----0----0---0---0---------||


                                  15/8
    PM   PM   PM   PM  PM                                  PM--|     PM--|
    E  E E  E E  E E E E E E E      E.  E.  E. E.  E.  E.  S S S E.  S S S E.
||------------------------------||---------------------------------------------|
||o----------------------------o||---------------------------------------------|
||-----9----9----6---3---3s6-6--||--9---6---3S=6---5---4-----------------------|
||------------------------------||-----------------------------------------3---|
||o----7----7----4---1---1s4-4-o||--7---4---1S=4---3---2---------2-------------|
||--0----0----0----0---0--------||-------------------------1-1-1-----1-1-1-----|
|
|   PM   PM   PM   PM  PM                                  PM--|     PM--|
|   E  E E  E E  E E E E E E E      E.  E.  E. E.  E.  E.  S S S E.  S S S E.
||------------------------------||---------------------------------------------|
||o----------------------------o||---------------------------------------------|
||----12---12---13---7---7s9-9--||-12---9---6S=9---8---7-------------------6---|
||------------------------------||-------------------------------5-------------|
||o---10---10---11---5---5s7-7-o||-10---7---4S=7---6---5---4-4-4-----4-4-4-----|
||--0----0----0----0---0--------||---------------------------------------------|


   15/8
    PM----|   PM----|
    S S S S E S S S S E E S S S S S E S S S S S Q
||--------------------------------------------------||
||o------------------------------------------------o||
||--------------------------------------------------||
||--------------------------------------------------||
||o------------------------------------------------o||
||--0-0-0-0---0-0-0-0-------0-0-0-0---0-0-0-0-------||


   12/8
    PM----|    PM----|   PM------------|
    S S S S E  S S S S E S S S E E S S S E  4x
||------------------------------------------||
||o----------------------------------------o||
||------------------------------------------||
||------------------------------------------||
||o----------------------------------------o||
||--0-0-0-0----3-2-1-0---0-0-0-0-0-0-0-0----||
|
|   PM----|    PM----|   PM------------|
|   S S S S E  S S S S E S S S E E S S S E  4x
||------------------------------------------||
||o----------------------------------------o||
||------------------------------------------||
||------------------------------------------||
||o-----------10-9-8-7---------------------o||
||--0-0-0-0--------------0-0-0-0-0-0-0-0----||


  PM----|     PM------------------------------|
  S S S S E   S S S S E   S S S E   E   S S S E
|--------------------------------------------------|
|--------------------------------------------------|
|--------------------------------------------------|
|--------------------------------------------------|
|--------------------------------------------------|
|-2-2-2-2-----2-2-2-2-----2-2-2-2---2---2-2-2------|
|
| PM--------------------------------------------|
| S S S S S S S S S S S S S S S S S S S S S S S S
|--------------------------------------------------|
|--------------------------------------------------|
|-------------------4-4-4-6-6-6-7-7-7-6-6-6-5-5-5--|
|-4-4-4-6-6-6-7-7-7--------------------------------|
|--------------------------------------------------|
|--------------------------------------------------|


  PM-----|   PM----|     PM----------------|
  S  S S S E S S S S  E  S  S  S E  E S  S  S  E
|--------------------------------------------------|
|--------------------------------------------------|
|--------------------------------------------------|
|--------------------------------------------------|
|--------------------------------------------------|
|-2--2-2-2---2-2-2-2-----2--2--2-2--2-2--2--2------|
|
| ~~
| H.               S  S  S  S  S S  S S  S  S  S S
|--------------------------------9-14p9----------9-|
|-----------------------------10--------10----10---|
|-6------------------------11--------------11------|
|-----------------------11-------------------------|
|------------------9h12----------------------------|
|--------------------------------------------------|


   S     S  S S  S S  S S  S S  S S  S     S S S  S S  S S  S S  S S
|-12p====7----7-12p7-12p7----7-12p7-12p====7---7-12p7-12p7----7-12p7---|
|----------10-------------10-----------------9--------------9----------|
|----------------------------------------------------------------------|
|----------------------------------------------------------------------|
|----------------------------------------------------------------------|
|----------------------------------------------------------------------|
|
|  H.                                H                      E    E
|----------------------------------------------------------------------|
|-15b17=============================12b14==================12---10-----|
|----------------------------------------------------------------------|
|----------------------------------------------------------------------|
|----------------------------------------------------------------------|
|----------------------------------------------------------------------|


   S     S  S S  S S  S S  S S  S S  S S S S S  S S  S S S S S
|-12p====7----7-12p7-12p7----7-12p7-12p7---------------------7-|
|----------10-------------10-------------9-----------------9---|
|------------------------------------------9-------------9-----|
|--------------------------------------------9---------9-------|
|----------------------------------------------11-7h11---------|
|--------------------------------------------------------------|
|
|  W
|--------------------------------------------------------------|
|-11b12========================================================|
|--------------------------------------------------------------|
|--------------------------------------------------------------|
|--------------------------------------------------------------|
|--------------------------------------------------------------|


    S  S  S  S  E     S  S  S  S  E     S  S  S  E     E     S  S  S  E
|--------------------------------------------------------------------------|
|--------------------------------------------------------------------------|
|--------------------------------------------------------------------------|
|--------------------------------------------------------------------------|
|--------------------------------------------------------------------------|
|---4--4--4--4--------4--4--4--4--------4--4--4--4-----4-----4--4--4-------|
|
|   S  S  S  S  S  S  S  S  S  S  S  S  S  S  S  S  S  S  S  S  S  S  S  S
|--16p11----11-17p11-16p11----11-16p11-16p11----------------------------11-|
|--------13----------------13----------------13----------------------13----|
|-----------------------------------------------13----------------13-------|
|--------------------------------------------------13----------13----------|
|-----------------------------------------------------15-11h15-------------|
|--------------------------------------------------------------------------|


   S  S  S  S  E     S  S  S  S  E     S  S S E E S  S  S  E
|-------------------------------------------------------------|
|-------------------------------------------------------------|
|-------------------------------------------------------------|
|-------------------------------------------------------------|
|-------------------------------------------------------------|
|--4--4--4--4--------4--4--4--4--------4--4-4-4-4-4--4--4-----|
|
|                                      ~~~
|  S  S  S  S  S  S  S  S  S  S  S  S  Q.            E.    E.
|-16-14-12----------------------------------------------------|
|----------16-14-13-------------------------------------------|
|-------------------16-14-13----------------------------------|
|----------------------------16-14-13-14------------13----14--|
|-------------------------------------------------------------|
|-------------------------------------------------------------|


   ~~          ~~            ~~~~~~~~~~~~~~~~~~~~~
   H     E  E  H     E  E    Q.    Q.    Q.    Q.
|-------------------------|------------------------|
|-------------------------|------------------------|
|--6-----5--6--8-----6--8-|--9----11----13----14---|
|-------------------------|------------------------|
|-------------------------|------------------------|
|-------------------------|------------------------|
|
|  ~~          ~~            ~~~~~~~~~~~~~~~~~~~~~
|  H     E  E  H     E  E    Q.    Q.    Q.    Q.
|-------------------------|------------------------|
|-------------------------|------------------------|
|-------------13-------13-|-14----16----18----20---|
|-16----14-16-------16----|------------------------|
|-------------------------|------------------------|
|-------------------------|------------------------|


   S  S  S  S  S  S  S  S  S  S  S  S  S S  S S  S S  S S  S S  S S
|-------------------------------------------------------------------|
|-------------------------------------------------------------------|
|-13p=8-----8-13p=8-13p=8-----8-13p=8--9p6----6--9p6--9p6----6--9p6-|
|-------10----------------10----------------7--------------7--------|
|-------------------------------------------------------------------|
|-------------------------------------------------------------------|
|
|  S  S  S  S  S  S  S  S  S  S  S  S  S S  S S  S S  S S  S S  S S
|-16p11----11-16p11-16p11----11-16p11-12p9----9-12p9-12p9----9-12p9-|
|-------13----------------13---------------10-------------10--------|
|-------------------------------------------------------------------|
|-------------------------------------------------------------------|
|-------------------------------------------------------------------|
|-------------------------------------------------------------------|


   S  S  S  S  S  S  S  S  S  S  S  S  S  S  S  S  S  S  S  S  S  S  S  S
|--------------------------------------------------------------------------|
|--------------------------------------------------------------------------|
|-11p=8-----8-11p=8-11p=8-----8-11p=8-14p11----11-14p11-14p11----11-14p11--|
|--------9-----------------9----------------13----------------13-----------|
|--------------------------------------------------------------------------|
|--------------------------------------------------------------------------|
|
|  S  S  S  S  S  S  S  S  S  S  S  S  S  S  S  S  S  S  S  S  S  S  S  S
|-14p11----11-14p11-14p11----11-14p11-14p11----11-14p11-14p11----11-14p11--|
|-------12----------------12----------------13----------------13-----------|
|--------------------------------------------------------------------------|
|--------------------------------------------------------------------------|
|--------------------------------------------------------------------------|
|--------------------------------------------------------------------------|


   S  S  S  S  S  S  S  S  S  S  S  S  S  S  S  S  S  S  S  S  S  S  S  S
|-------------------------------------------------------------------------|
|-------------------------------------------------------------------------|
|-13p=9-----9-13p=9-13p=9-----9-13p=9-14p=9-----9-14p=9-14p=9-----9-14p=9-|
|-------11----------------11----------------11----------------11----------|
|-------------------------------------------------------------------------|
|-------------------------------------------------------------------------|
|
|  S  S  S  S  S  S  S  S  S  S  S  S  S  S  S  S  S  S  S  S  S  S  S  S
|-16p12----12-16p12-16p12----12-16p12-17p12----12-17p12-17p12----12-17p12-|
|-------14----------------14----------------14----------------14----------|
|-------------------------------------------------------------------------|
|-------------------------------------------------------------------------|
|-------------------------------------------------------------------------|
|-------------------------------------------------------------------------|


   S  S  S  S  S  S  S  S  S  S  S  S  S  S  S  S  S  S  S  S  S  S  S  S
|--------------------------------------------------------------------------|
|--------------------------------------------------------------------------|
|-13p=8-----8-13p=8-13p=8-----8-13p=8-13p=8-----8-13p=8-13p=8-----8-13p=8--|
|-------11----------------11----------------10----------------10-----------|
|--------------------------------------------------------------------------|
|--------------------------------------------------------------------------|
|
|  S  S  S  S  S  S  S  S  S  S  S  S  S  S  S  S  S  S  S  S  S  S  S  S
|-16p11----11-16p11-16p11----11-16p11-16p11----11-16p11-16p11----11-16p11--|
|-------14----------------14----------------13----------------13-----------|
|--------------------------------------------------------------------------|
|--------------------------------------------------------------------------|
|--------------------------------------------------------------------------|
|--------------------------------------------------------------------------|


   S  S  S  S  S  S  S  S  S  S  S  S  S S  S S  S S  S S  S S  S S
|-------------------------------------------------------------------|
|-------------------------------------------------------------------|
|-11p=8-----8-11p=8-11p=8-----8-11p=8--9p6----6--9p6--9p6----6--9p6-|
|--------9-----------------9----------------7--------------7--------|
|-------------------------------------------------------------------|
|-------------------------------------------------------------------|
|
|  S  S  S  S  S  S  S  S  S  S  S  S  S S  S S  S S  S S  S S  S S
|-14p11----11-14p11-14p11----11-14p11-12p9----9-12p9-12p9----9-12p9-|
|-------12----------------12---------------10-------------10--------|
|-------------------------------------------------------------------|
|-------------------------------------------------------------------|
|-------------------------------------------------------------------|
|-------------------------------------------------------------------|


   S S S S  S S  S S S S  S S S S S S S S S S S S S S
|------------------------------------------------------|
|------------------------------------------------------|
|--8p5---5--8p5--8p5---5--8p5-6p2---2-6p2-6p2---2-6p2--|
|------6-------------6------------4-----------4--------|
|------------------------------------------------------|
|------------------------------------------------------|
|
|  S S S S  S S  S S S S  S S S S S S S S S S S S S S
|-11p8---8-11p8-11p8---8-11p8-9p5---5-9p5-9p5---5-9p5--|
|------9-------------9------------7-----------7--------|
|------------------------------------------------------|
|------------------------------------------------------|
|------------------------------------------------------|
|------------------------------------------------------|


                                                            PM--|    PM--|
  S S S S S S  S  S  S  S S  S  S S Q  Q  E     E. E. E. E. S S S E. S S S E.
|-------------------------------------------||--------------------------------|
|-------------------------------------------||o-------------------------------|
|-6p2---2-6p2--6p=2-----2-6p=2--6-----------||--------8--7--------------------|
|-----4--------------4----------------------||--6--9--8--7--------------------|
|-------------------------------------------||o-6--9--6--5--------------------|
|-------------------------------------------||--4--7--6--5--0-0-0-3--0-0-0-7--|
|
|                                                           PM--|    PM--|
| S S S S S S  S  S  S  S S  S  S S Q  Q  E     E. E. E. E. S S S E. S S S E.
|-9p5---------------------9h14-14-----------||--------------------------------|
|-----7----------------10-------------------||o-------------------------------|
|-------6-----------11----------------------||--------8--7--------------------|
|---------7------11-------------------------||--6--9--8--7--------------------|
|-----------9h12----------------------------||o-6--9--6--5--------------------|
|-------------------------------------------||--4--7--6--5--0-0-0-0--0-0-0-3--|


              PM------------|
  E. E. E. E. S S S E E S S E E     E. E. E. E. H
|--------------------------------||------------------|
|-------------------------------o||------------------|
|-------8--7---------------------||-------8--7-------|
|-6--9--8--7---------------------||-6--9--8--7-------|
|-6--9--6--5--------------------o||-6--9--6--5-------|
|-4--7--6--5--0-0-0-0-0-0-0-0----||-4--7--6--5-------|
|
| E. E. E. E. S S S E E S S E E     E. E. E. E. H
|--------------------------------||------------------|
|-------------------------------o||------------------|
|-------8--7---------------------||-------8--7-------|
|-6--9--8--7---------------------||-6--9--8--7-------|
|-6--9--6--5--------------------o||-6--9--6--5-------|
|-4--7--6--5--0-0-0-0-0-0-0-0----||-4--7--6--5-------|


    Q=227
   4/4
      PM------------------------|
    E S S S S S S S S S S S S S S
||--------------------------------|
||o-------------------------------|
||--------------------------------|
||--------------------------------|
||o-6-----------------------------|
||----4-4-4-4-4-4-4-4-4-4-4-4-4-4-|
|
|     PM------------------------|
|   E S S S S S S S S S S S S S S
||--------------------------------|
||o-------------------------------|
||--------------------------------|
||--------------------------------|
||o-6-----------------------------|
||----4-4-4-4-4-4-4-4-4-4-4-4-4-4-|


                      PM----------------------|
  E E E E E E E E   E S S S S S S S S S S S S S S
|-----------------|---------------------------------|
|-----------------|---------------------------------|
|-----------------|---------------------------------|
|-----------------|---------------------------------|
|-4-6-7-4-6---4---|-6-------------------------------|
|-----------7---5-|---4-4-4-4-4-4-4-4-4-4-4-4-4-4---|
|
|                     PM------------------------|
| E E E E E E E E   E S S S S S S S S S S S S S S
|-----------------|---------------------------------|
|-----------------|---------------------------------|
|-6-8-9-6-8---6---|-8-------------------------------|
|-----------9---7-|---------------------------------|
|-----------------|---------------------------------|
|-----------------|---4-4-4-4-4-4-4-4-4-4-4-4-4-4---|


                      PM------------------------|
  E E E E E E E E   E S S S S S S S S S S S S S S   E E E E E E E E
|-----------------|-------------------------------|-----------------|
|-----------------|-------------------------------|-----------------|
|-----------------|-------------------------------|-----------------|
|-----------------|-------------------------------|-----------------|
|-4-6-7-4-6---4---|-7-----------------------------|-4-6-7-4-6---4---|
|-----------7---5-|---5-5-5-5-5-5-5-5-5-5-5-5-5-5-|-----------7---5-|
|
|                     PM------------------------|
| E E E E E E E E   E S S S S S S S S S S S S S S   E E E E E E E E
|-----------------|-------------------------------|-----------------|
|-----------------|-------------------------------|-----------------|
|-6-8-9-6-8---6---|-9-----------------------------|-6-8-9-6-8---6---|
|-----------9---7-|-------------------------------|-----------9---7-|
|-----------------|-------------------------------|-----------------|
|-----------------|---5-5-5-5-5-5-5-5-5-5-5-5-5-5-|-----------------|


    PM------------------------|
  E S S S S S S S S S S S S S S   Q.   Q.   Q
|-------------------------------|---------------||
|-------------------------------|--------------o||
|-------------------------------|---------------||
|-------------------------------|-2----4----5---||
|-7-----------------------------|-2----4----5--o||
|---5-5-5-5-5-5-5-5-5-5-5-5-5-5-|-0----2----3---||
|
|   PM------------------------|
| E S S S S S S S S S S S S S S   Q.   Q.   Q
|-------------------------------|---------------||
|-------------------------------|--------------o||
|-9-----------------------------|---------------||
|-------------------------------|-2----4----5---||
|-------------------------------|-2----4----5--o||
|---5-5-5-5-5-5-5-5-5-5-5-5-5-5-|-0----2----3---||


    PM--------|   PM--------|
  E S S S S S S E S S S S S S    E E E E E  E E E
|-----------------------------|-------------------|
|-----------------------------|-------------------|
|-----------------------------|-------------------|
|-----------------------------|--7----------------|
|-7-------------6-------------|----6---6-7--9-7-6-|
|---5-5-5-5-5-5---5-5-5-5-5-5-|------5------------|
|
|   PM--------|   PM--------|
| E S S S S S S E S S S S S S    E E E E E  E E E
|-----------------------------|-------------------|
|-----------------------------|-10----------------|
|-9-------------8-------------|----8---8-9-11-9-8-|
|---7-7-7-7-7-7---7-7-7-7-7-7-|------7------------|
|-----------------------------|-------------------|
|-----------------------------|-------------------|


     PM--------|   PM--------|
   E S S S S S S E S S S S S S    E  E E E  E  E  E E
|------------------------------|----------------------|
|------------------------------|----------------------|
|------------------------------|----------------------|
|------------------------------|-11-------------------|
|--9-------------7-------------|-----9---7--9-11--9-7-|
|----7-7-7-7-7-7---7-7-7-7-7-7-|-------7--------------|
|
|    PM--------|   PM--------|
|  E S S S S S S E S S S S S S    E  E E E  E  E  E E
|------------------------------|----------------------|
|------------------------------|-14-------------------|
|-11-------------9-------------|----11---9-11-13-11-9-|
|----9-9-9-9-9-9---9-9-9-9-9-9-|-------9--------------|
|------------------------------|----------------------|
|------------------------------|----------------------|


    PM------------------------|
  E S S S S S S S S S S S S S S   E E  E E E  E E E
|-------------------------------|-------------------|
|-------------------------------|-------------------|
|-------------------------------|-------------------|
|-------------------------------|-------------------|
|-9-----------------------------|-7-9-10-7-9----7---|
|---7-7-7-7-7-7-7-7-7-7-7-7-7-7-|------------10---8-|
|
|   PM------------------------|
| E S S S S S S S S S S S S S S   E E  E E E  E E E
|-------------------------------|-------------------|
|-------------------------------|-------------------|
|-------------------------------|-------------------|
|-------------------------------|-5-7--9-5-7----5---|
|-9-----------------------------|-------------9---7-|
|---7-7-7-7-7-7-7-7-7-7-7-7-7-7-|-------------------|


    PM------------------------|
  E S S S S S S S S S S S S S S
|--------------------------------|
|--------------------------------|
|--------------------------------|
|--------------------------------|
|-9------------------------------|
|---7-7-7-7-7-7-7-7-7-7-7-7-7-7--|
|
|   PM------------------------|
| E S S S S S S S S S S S S S S
|--------------------------------|
|--------------------------------|
|--------------------------------|
|--------------------------------|
|-9------------------------------|
|---7-7-7-7-7-7-7-7-7-7-7-7-7-7--|


                         PM------------------------|
  E E  E E E  E E E    E S S S S S S S S S S S S S S   E E  E E E  E E E
|-------------------|--------------------------------|-------------------|
|-------------------|--------------------------------|-------------------|
|-------------------|--------------------------------|-------------------|
|-------------------|--------------------------------|-------------------|
|-7-9-10-7-9----7---|-10-----------------------------|-7-9-10-7-9----7---|
|------------10---8-|----8-8-8-8-8-8-8-8-8-8-8-8-8-8-|------------10---8-|
|
|                        PM------------------------|
| E E  E E E  E E E    E S S S S S S S S S S S S S S   E E  E E E  E E E
|-------------------|--------------------------------|-------------------|
|-------------------|--------------------------------|-------------------|
|-------------------|--------------------------------|-------------------|
|-5-7--9-5-7----5---|--5-----------------------------|-5-7--9-5-7----5---|
|-------------9---7-|--------------------------------|-------------9---7-|
|-------------------|----8-8-8-8-8-8-8-8-8-8-8-8-8-8-|-------------------|


     PM------------------------|
   E S S S S S S S S S S S S S S   Q.   Q.   Q
|--------------------------------|---------------|
|--------------------------------|---------------|
|--------------------------------|-5----7----8---|
|--------------------------------|-5----7----8---|
|-10-----------------------------|-3----5----6---|
|----8-8-8-8-8-8-8-8-8-8-8-8-8-8-|-3----5----6---|
|
|    PM------------------------|
|  E S S S S S S S S S S S S S S   Q.   Q.   Q
|--------------------------------|---------------|
|--------------------------------|---------------|
|--------------------------------|-5----7----8---|
|--5-----------------------------|-5----7----8---|
|--------------------------------|-3----5----6---|
|----8-8-8-8-8-8-8-8-8-8-8-8-8-8-|-3----5----6---|


   12/8
    PM---------------------------------|
    E. E. E. E. E. E. E. E.   E. E. E. E.  S S S S S S S S S S S S  3x
||--------------------------|---------------------------------------||
||o-------------------------|--------------------------------------o||
||--9--8--5--8--7--5--4--5--|-9--8--5--8----------------------------||
||--9--8--5--8--7--5--4--5--|-9--8--5--8---3-3-3-3-3-3-2-2-2-2-2-2--||
||o-7--6--3--6--5--3--2--3--|-7--6--3--6---5-5-5-5-5-5-4-4-4-4-4-4-o||
||--7--6--3--6--5--3--2--3--|-7--6--3--6----------------------------||
                                           S S S S S S S S S S S S


  PM---------------------------------------------------|
  E. E. E. E. E. E. E. E.   E. E. E. E.  E S S E E S S E
|-------------------------|------------------------------||
|-------------------------|------------------------------||
|-9--8--5--8--7--5--4--5--|-9--8--5--8-------------------||
|-9--8--5--8--7--5--4--5--|-9--8--5--8-------------------||
|-7--6--3--6--5--3--2--3--|-7--6--3--6-------------------||
|-7--6--3--6--5--3--2--3--|-7--6--3--6---0-0-0-0-0-0-0-0-||


End.


comments
We did not receive enough feedback on this tab! Please rate:
print report bad tab
1 2 3 4 5
I want to post or [tab]
guest
You may want to rate the tab now too:
select rating
Please do not post tabs as comments. Select "correction" instead!