Oops, an error
Loading. Please wait.

Hunt To The Weaks Tab

ver1
ver1

Whole song

Interactive

More versions @911Tabs.com
204 views 1 this week
no commentswrite comment
1 2 3 4 5
please rate
add to favorites launch autoscroll
font size
0
reset
Autoscroll
+/-
esc
set tempo
stop
Contributor
WARNING: You are trying to view
                                    content from Ultimate-Guitar.com
                                    in an unauthorized application,
                                    which is prohibited.

                                    Please use an official Ultimate
                                    Guitar Tabs application for iPhone,
                                    iPad or Android to access legitimate
                                    chords, guitar, bass, and drum tabs
                                    from Ultimate-Guitar.com database.

                                    Type "ultimate guitar tabs" in Apple
                                    App Store's or Android Market's
                                    search to find the application.
#----------------------------------PLEASE NOTE---------------------------------#
#This file is the author's own work and represents their interpretation of the #
#song. You may only use this file for private study, scholarship, or research. #
#------------------------------------------------------------------------------#

                                HUNT TO THE WEAKS
                              As recorded by Gorod
                     (From the 2005 Album Neurotripsticks)

Tabbed By Gorod
Gtr I (D G C F A D) - 'Untitled'


    Q=210
   4/4
    Gtr I
     PM    PM    PM    PM-----|      PM       PM---------
     E  E  E  E  E  E  E  E    E  E  E  E  E  E  E  E
||--------------------------|--------------------------||
||o-------------------------|-------------------------o||
||--------------------------|--------------------------||
||------9-----8-----7-------|-----9-----8--9-----------||
||o--7----10-----9-----8----|--7----10--------------6-o||
||-----------------------10-|-----------------7--8-----||
|
|    PM    PM    PM    PM-----|      PM       PM|
|    E  E  E  E  E  E  E  E    E  E  E  E  E  E  E  E
||--------------------------|--------------------------||
||o-------------------------|-------------------------o||
||-----16----15----14-------|----16----15-16-----------||
||--14----17----16----15----|-14----17-------------13--||
||o----------------------17-|----------------14-15----o||
||--------------------------|--------------------------||


 -|    PM  PM  PM-----|    PM    PM|
  E E  E E E E E  E   E E  E E E E E E
|-------------------|-------------------||
|-------------------|------------------o||
|-------------------|-------------------||
|---9----8---7------|---9----8-9--------||
|-7---10---9---8----|-7---10---------6-o||
|----------------10-|------------7-8----||
|
| PM   PM  PM  PM-----|    PM    PM|
| E E  E E E E E  E   E E  E E E E E E
|-------------------|-------------------||
|-------------------|------------------o||
|---9----8---7------|---9----8-9--------||
|-7---10---9---8----|-7---10---------6--||
|----------------10-|------------7-8---o||
|-------------------|-------------------||


                    PM  PM--------|       PM  PM--------|
  Q  Q  Q  Q    E E E E E S S E S S   E E E E E S S E S S
|-------------|---------------------|---------------------|
|-------------|---------------------|---------------------|
|----3--------|---------------------|---------------------|
|-2--3--5--2--|-8s7---5-------------|-8s7---5-------------|
|-2--1--5--2--|-8s7---5-------------|-8s7---5-------------|
|-0-----3--0--|-6s5-0-3-0-0-0-0-0-0-|-6s5-0-3-0-0-0-0-0-0-|


      PM  PM--------|       PM    PM          PM  PM      PM|
  E E E E E S S E S S   E E E E E E E E   E E E E E S S E S S
|---------------------|-----------------|---------------------|
|---------------------|-----------------|---------------------|
|---------------------|-------4s5---7s8-|---------------------|
|-8s7---5-------------|-8s7-------------|-8s7---5---5h7h8-----|
|-8s7---5-------------|-8s7---2s3---5s6-|-8s7---5-------------|
|-6s5-0-3-0-0-0-0-0-0-|-6s5-0-----0-----|-6s5-0-3-0-------0-0-|


      PM  PM--------|       PM  PM      PM|       PM    PM
  E E E E E S S E S S   E E E E E S S E S S   E E E E E E E E
|---------------------|---------------------|-----------------|
|---------------------|---------------------|-----------------|
|---------------------|---------------------|-------4s5---7s8-|
|-8s7---5-------------|-8s7---5---5h7h8-----|-8s7-------------|
|-8s7---5-------------|-8s7---5-------------|-8s7---2s3---5s6-|
|-6s5-0-3-0-0-0-0-0-0-|-6s5-0-3-0-------0-0-|-6s5-0-----0-----|


    PM   PM  PM  PM-----|    PM    PM--|
    E E  E E E E E  E   E E  E E E E E E     H    H      H    H
||--------------------|-------------------||-----------|-----------|
||o-------------------|------------------o||-----------|-----------|
||--------------------|-------------------||-----------|-----------|
||----9----8---7------|---9----8-9--------||-2----4----|-5----7----|
||o-7---10---9---8----|-7---10---------6-o||-2----3----|-5----7----|
||-----------------10-|------------7-8----||-0----2----|-3----5----|
|
|   PM   PM  PM  PM-----|    PM    PM|
|   E E  E E E E E  E   E E  E E E E E E     H    H      H    H
||--------------------|-------------------||-----------|-----------|
||o-------------------|------------------o||-----------|-----------|
||----7----6---5------|---7----6-7--------||-----------|-----------|
||--5----8---7---6----|-5----8---------4--||-2----4----|-5----7----|
||o-----------------8-|------------5-6---o||-2----3----|-5----7----|
||--------------------|-------------------||-0----2----|-3----5----|


                                                 ~              ~    PM----|
                                |-3--|  |-3--|        |--3--|        |--3--|
  E E E E E E E  E    E E E  E  E E  E  E E  E   H    Q  Q  Q   H    Q  Q  Q
|------------------|------------9p6------------|--------------|--------------|
|------------------|-----------------8---------|--------------|--------------|
|------------------|--------------------9p6----|--------------|--------------|
|---8-----5------8-|------5------------------8-|--------------|--------------|
|-----7-----7------|--7------7-----------------|-5----5--7--8-|-7----8--7--8-|
|-6-----6-----6----|----6----------------------|--------------|--------------|
|
|                                                ~              ~    PM----|
|                               |-3--|  |-3--|        |--3--|        |--3--|
| E E E E E E E  E    E E E  E  E E  E  E E  E   H    Q  Q  Q   H    Q  Q  Q
|------------------|-----------12p9------------|--------------|--------------|
|------------------|----------------11---------|--------------|--------------|
|------------------|-------------------12p9----|---------6----|------------6-|
|---8-----5-----11-|------8-----------------11-|-3----3-----8-|-7----7--8----|
|-----7-----7------|-10-----10-----------------|--------------|--------------|
|-6-----6-----6----|----9----------------------|--------------|--------------|


   ~~~
   H     +E  E E E   S S S S S  S S  S  S  S  S  S S S S S
|------------------|---------------------------------------|
|------------------|---------------------------------------|
|------------------|---------------------------------------|
|-[6]----(6)-----6-|-7h8p7h8-------------------------------|
|------------7-8---|---------7h=8p7h=8---------------------|
|------------------|--------------------9h10p=9h10-5h6p5h6-|
|
|  ~~~
|  H     +E  E E E   S S S S S  S S  S  S  S  S  S S S S S
|------------------|---------------------------------------|
|------------------|---------------------------------------|
|--8-----(8)-----6-|-8h9p8h9-------------------------------|
|------------7-8---|---------9h10p9h10---------------------|
|------------------|-------------------10h11p10h11-7h8p7h8-|
|------------------|---------------------------------------|


  ~
             |---3----|
  H          Q   Q    Q
|-----------------------|
|-----------------------|
|-----------------------|
|-----------------------|
|----------------5----7-|
|-6----------6----------|
|
| E  E  E E  E E E  E
|-----------------------|
|---11------11-----10---|
|------10------9--------|
|-8-------8------8------|
|-----------------------|
|-----------------------|


  ~                   ~
           |--3---|           |--3--|
  H        Q    Q Q   H       Q   Q Q   E   E   E   E    E     E      E   E
|-------------------|-----------------|---------------------------------------|
|-------------------|-----------------|---------------------------------------|
|-------------------|-----------------|---------------------------------------|
|-------------------|-----------------|-------------5----8------------5---7---|
|---------------4-5-|-------------4-5-|-----4---7--------------7--------------|
|-5--------5--------|-3-------3-------|-5-------------------------------------|
|
|                                       PM-----------------|
| E E  E E E  E E E   E E E E E E E E   S S S S S S S S  S  S  S  S   Q
|-------------------|-----------------|---------------------------------------|
|-----10-----10-----|---8-----8-----8-|---------------------------------------|
|-9------9------9---|-----7-----7-----|-7-7-7-7-9-9-9-9-10-10-10-10-/12\------|
|---7------7------7-|-5-----5-----5---|---------------------------------------|
|-------------------|-----------------|---------------------------------------|
|-------------------|-----------------|---------------------------------------|


  Q=150
  PM---------------------------------------------------------------------------------------
  S S S S  S  S S S  S  S  S  S S S  S  S   S S  S  S  S  S  S  S  S  S  S  S  S  S  S  S
|-----------------------------------------|-----------------------------------------------|
|-----------------------------------------|-----------------------------------------------|
|-----------------------------------------|-----------------------------------------------|
|--------------------7--7-----------------|-----------------------------------------------|
|-5-5-7-7--8--8-7-7--------8--8-7-7--8--8-|------------------------8--8-------------------|
|-----------------------------------------|-6-6--8--8--9--9--8--8--------9--9--8--8--9--9-|
|
| PM---------------------------------------------------------------------------------------
| S S S S  S  S S S  S  S  S  S S S  S  S   S S  S  S  S  S  S  S  S  S  S  S  S  S  S  S
|-----------------------------------------|-----------------------------------------------|
|-------------------10-10-----------------|-----------------------------------------------|
|-7-7-9-9-10-10-9-9-------10-10-9-9-10-10-|-----------------------10-10-------------------|
|-----------------------------------------|-8-8-10-10-11-11-10-10-------11-11-10-10-11-11-|
|-----------------------------------------|-----------------------------------------------|
|-----------------------------------------|-----------------------------------------------|


 ----------------------------------------------|
   S  S  S  S  S  S  S  S  S  S  S  S  S  S  S  S
|-------------------------------------------------|
|-------------------------------------------------|
|-------------------------------------------------|
|-------------------------10-10-------------------|
|--8--8-10-10-11-11-10-10-------11-11-10-10-11-11-|
|-------------------------------------------------|
|
|----------------------------------------------|
|  S  S  S  S  S  S  S  S  S  S  S  S  S  S  S  S
|-------------------------------------------------|
|-------------------------13-13-------------------|
|-10-10-12-12-13-13-12-12-------13-13-12-12-13-13-|
|-------------------------------------------------|
|-------------------------------------------------|
|-------------------------------------------------|


                                                PM---------------------------------------------
   S  S  S  S  S  S  S  S  S  S  S  S S S S S   S S  S  S  S  S  S  S  S  S  S  S  S  S  S  S
|---------------------------------------------|-----------------------------------------------|
|---------------------------------------------|-----------------------------------------------|
|-10h12p10h12---------------------------------|-----------------------------------------------|
|-------------10h11p10h11---------------------|------------------------9--9-------------------|
|-------------------------10h11p10h11-7h8p7h8-|-7-7--9--9-10-10--9--9-------10-10--9--9-10-10-|
|---------------------------------------------|-----------------------------------------------|
|
|  PM------------------------------------------------------------------------------------------
|  S  S  S  S  S  S  S  S  S  S  S  S S S S S   S S  S  S  S  S  S  S  S  S  S  S  S  S  S  S
|---------------------------------------------|-----------------------------------------------|
|---------------------------------------------|-----------------------12-12-------------------|
|-12-12-10-10---------------------------------|-9-9-11-11-12-12-11-11-------12-12-11-11-12-12-|
|-------------11-11-10-10---------------------|-----------------------------------------------|
|-------------------------11-11-10-10-7-7-----|-----------------------------------------------|
|-----------------------------------------8-8-|-----------------------------------------------|


 ----------------------------------------------|
   S  S  S  S  S  S  S  S  S  S  S  S  S  S  S  S
|-------------------------------------------------|
|-------------------------------------------------|
|-------------------------------------------------|
|-------------------------------------------------|
|-------------------------10-10-------------------|
|--8--8-10-10-11-11-10-10-------11-11-10-10-11-11-|
|
|----------------------------------------------|
|  S  S  S  S  S  S  S  S  S  S  S  S  S  S  S  S
|-------------------------------------------------|
|-------------------------------------------------|
|-------------------------12-12-------------------|
|-10-10-12-12-13-13-12-12-------13-13-12-12-13-13-|
|-------------------------------------------------|
|-------------------------------------------------|


   PM------------------------------------------|
   S  S  S  S  S  S  S  S  S  S  S  S  S  S  S  S
|-------------------------------------------------|
|-------------------------------------------------|
|-------------------------------------------------|
|-------------------------12-12-------------------|
|-10-10-12-12-13-13-12-12-------13-13-12-12-13-13-|
|-------------------------------------------------|
|
|  PM----------------------------------------------
|  S  S  S  S  S  S  S  S  S  S  S  S  S  S  S  S
|-------------------------------------------------|
|-------------------------15-15-------------------|
|-12-12-14-14-15-15-14-14-------15-15-14-14-15-15-|
|-------------------------------------------------|
|-------------------------------------------------|
|-------------------------------------------------|


                                              Q=210
                                                           PM
   S  S S  S  S  S S  S  S  S S  S S S S S    Q  Q  Q  E   E
|------------------------------------------||-----------------||
|------------------------------------------||-----------------||
|--9h11p9h11-------------------------------||-9---------------||
|-------------9h10p9h10--------------------||-9---------------||
|------------------------9h10p9h10-6h7p6h7-||-7---------------||
|------------------------------------------||-------------10--||
|
|----------------------------------------|                 PM
|  S  S S  S  S  S S  S  S  S S  S S S S S    Q  Q  Q  E   E
|------------------------------------------||-----------------||
|------------------------------------------||-----------------||
|-11-11-9--9-------------------------------||-9---------------||
|------------10-10-9--9--------------------||-9---------------||
|-----------------------10-10-9--9-6-6-----||-7-----------17--||
|--------------------------------------7-7-||-----------------||


  S S S S S S S S S S S S S S S S   Q   Q      H
|---------------------------------|-----------------||
|---------------------------------|-----------------||
|-7h9p7h9-------------------------|-7---------------||
|---------7h8p7h8-----------------|-7---------------||
|-----------------7h8p7h8-4h5p4h5-|-5---------------||
|---------------------------------|-----------------||
|
| PM----------------------------|
| S S S S S S S S S S S S S S S S   Q   Q      H
|---------------------------------|-----------------||
|---------------------------------|-----------------||
|-9-9-7-7-------------------------|-7---------------||
|---------8-8-7-7-----------------|-7---------------||
|-----------------8-8-7-7-4-4-----|-5---------------||
|-----------------------------5-5-|-----------------||


    Q=110
     PM---|      PM---------------------|
     S  S  S  S  S  S  S  S  S  S  S  S  S  S  S  S
||--------------------------------------------------|
||o-------------------------------------------------|
||------------3-----------------------------3--6--3-|
||---5--2--5-----5--2--5--2-----------2--5----------|
||o--------------------------4--3--4----------------|
||--------------------------------------------------|
|
|    PM---|      PM---------------------|
|    S  S  S  S  S  S  S  S  S  S  S  S  S  S  S  S
||--------------------------------------------------|
||o-------------------------------------------------|
||-----------15----------------------------15-18-15-|
||--17-14-17----17-14-17-14----------14-17----------|
||o-------------------------16-15-16----------------|
||--------------------------------------------------|


   PM---|      PM    PM|
   S  S  S  S  S  S  S  S  S  S  S  S  S  S  S  S
|---------------------------------------------------||
|--------------------------------------------------o||
|-----------4-----3---------------------------------||
|--5--2--5-----5-----5--4--5--4--5--4--2--5--1--4---||
|--------------------------------------------------o||
|---------------------------------------------------||
|
|  PM---|      PM    PM|
|  S  S  S  S  S  S  S  S  S  S  S  S  S  S  S  S
|---------------------------------------------------||
|--------------------------------------------------o||
|----------16----15---------------------------------||
|-17-14-17----17----17-16-17-16-17-16-14-17-13-16---||
|--------------------------------------------------o||
|---------------------------------------------------||


            ~~~~~~~
   S  S  S  S  +S   S  S  S  S  S  S  S  S  S  S  S
|---------------------------------------------------|
|---------------------------------------------------|
|---------------------------------------------------|
|--8--7-------------8--7-----------------------8--7-|
|-------10--9--(9)-------10--9--7--6--7--9-10-------|
|---------------------------------------------------|
|
|           ~~~~~~~
|  S  S  S  S  +S   S  S  S  S  S  S  S  S  S  S  S
|---------------------------------------------------|
|---------------------------------------------------|
|-15-14------------15-14----------------------14-15-|
|-------17-16-(16)-------17-16-14-13-14-16-17-------|
|---------------------------------------------------|
|---------------------------------------------------|


            ~~~~~~~
   S  S  S  S  +S   S  S  S  S  S  S  S  S  S  S  S
|---------------------------------------------------|
|---------------------------------------------------|
|---------------------------------------------------|
|-11-10------------11-10----------------------10-11-|
|-------13-12-(12)-------13-12-10--9-10-12-13-------|
|---------------------------------------------------|
|
|           ~~~~~~~
|  S  S  S  S  +S   S  S  S  S  S  S  S  S  S  S  S
|---------------------------------------------------|
|---------------------------------------------------|
|-15-14------------15-14----------------------14-15-|
|-------17-16-(16)-------17-16-14-13-14-16-17-------|
|---------------------------------------------------|
|---------------------------------------------------|


  S S S S S  S S S S S  S  S S  S S S
|-------------------------------------|
|-------------------------------------|
|-------------------------------------|
|-------------------------------------|
|-5---4------8---7---7--8-10----8-----|
|---6---5-6----6---6---------6----6-6-|
|
| S S S S S  S S S S S  S  S S  S S S
|-------------------------------------|
|-------------------------------------|
|-7---6-----10---9---9-10-12---10-----|
|---8---7-8----8---8---------8----8-8-|
|-------------------------------------|
|-------------------------------------|


       PM   PM|      PM    PM     PM  PM
     S S  S S S  S S S S S S  S S S S S
||----------------------------------------|
||o---------------------------------------|
||----------------------------------------|
||---------------8-----5------8-----------|
||o-10----8--------7-----7------7---7-----|
||-----6----6-6------6-----6------6---6---|
|
|      PM   PM|      PM    PM     PM  PM
|    S S  S S S  S S S S S S  S S S S S
||----------------------------------------|
||o-------------11-----8-----11-----------|
||--12---10--------9-----9------9---9-----|
||-----8----8-8------8-----8------8---8---|
||o---------------------------------------|
||----------------------------------------|


    PM  PM|   PM  PM|   PM  PM  PM
  S S S S S S S S S S S S S S S S     S S S S S S S S  S S  S S  S S  S S
|----------------------------------||-------------------------------------|
|---------------------------------o||-------------------------------------|
|----------------------------------||----------------------------6----6-9-|
|-----------------------------5----||------------------5----5-8----8------|
|-7---5-----7---5-----4---7-------o||-------4-7---4-7----7----------------|
|---6---6-6---6---5-5---5---5---5--||-6-3-6-----6-------------------------|
|
|   PM  PM|   PM  PM|   PM  PM  PM
| S S S S S S S S S S S S S S S S     S S S S S S S S  S S  S S  S S  S S
|----------------------------------||-------------------------------------|
|-----------------------------8---o||-------------------------------------|
|-9---7-----9---7-----6---9--------||-------6-9---6-9-12-9---------9-12-9-|
|---8---8-8---8---7-7---7---7---7--||-8-5-8-----8----------11-8-11--------|
|---------------------------------o||-------------------------------------|
|----------------------------------||-------------------------------------|


   S  S  S  S  S  S  S  S  S  S  S  S  S  S  S  S
|-------------------------------------------------||
|-------------------------------------------------||
|-------------------------------------------------||
|-----7-----6-----5-----------7-----6--7----------||
|--5-----8-----7-----6-----5-----8--------------4-||
|-----------------------8-----------------5--6----||
|
|  S  S  S  S  S  S  S  S  S  S  S  S  S  S  S  S
|-------------------------------------------------||
|-------------------------------------------------||
|----14----13----12----------14----13-14----------||
|-12----15----14----13----12----15-------------11-||
|----------------------15----------------12-13----||
|-------------------------------------------------||


  S S S S S S S S  S S  S S  S S E
|----------------------------------||
|----------------------------------||
|----------------------------6-----||
|------------------5----5-8--------||
|-------4-7---4-7----7-------------||
|-6-3-6-----6----------------------||
|
| S S S S S S S S  S S  S S  S S E
|----------------------------------||
|----------------------------------||
|-------6-9---6-9-12-9----9-12-----||
|-8-5-8-----8----------11----------||
|----------------------------------||
|----------------------------------||


  Q=145
  W           H    H      W          +W
|----------|------------|----------|--------|
|----------|------------|----------|--------|
|-9--------|-10----6----|-9--------|-(9)----|
|-8--------|-10----6----|-9--------|-(9)----|
|-7--------|--8----4----|-7--------|-(7)----|
|-6--------|--8----4----|-7--------|-(7)----|


  W           H    H      W          E E E E E E S S E
|----------|------------|----------|--------------------|
|----------|------------|----------|--------------------|
|-9--------|-10----6----|-8--------|--------------------|
|-8--------|-10----6----|-8--------|--------------------|
|-7--------|--8----4----|-6--------|-3-0-2-0-1-0-3-3-2--|
|-6--------|--8----4----|-6--------|-3-0-2-0-1-0-3-3-2--|


  E E H.         H    H      W          +W
|-------------|------------|----------|--------|
|-------------|------------|----------|--------|
|-----9-------|-10----6----|-9--------|-(9)----|
|-----8-------|-10----6----|-9--------|-(9)----|
|-1-0-7-------|--8----4----|-7--------|-(7)----|
|-1-0-6-------|--8----4----|-7--------|-(7)----|


  W           H    H      W          E E E E E E S S E   E E E E E E S S E
|----------|------------|----------|-------------------|--------------------|
|----------|------------|----------|-------------------|--------------------|
|-9--------|-10----6----|-8--------|-------------------|--------------------|
|-8--------|-10----6----|-8--------|-------------------|--------------------|
|-7--------|--8----4----|-6--------|-3-0-2-0-1-0-3-3-2-|-3-0-2-0-1-0-3-3-2--|
|-6--------|--8----4----|-6--------|-3-0-2-0-1-0-3-3-2-|-3-0-2-0-1-0-3-3-2--|


  W           H    H      W          +W
|----------|------------|----------|--------|
|----------|------------|----------|--------|
|-9--------|-10----6----|-9--------|-(9)----|
|-8--------|-10----6----|-9--------|-(9)----|
|-7--------|--8----4----|-7--------|-(7)----|
|-6--------|--8----4----|-7--------|-(7)----|


  W           H    H      W          E E E E E E S S E   E E E E E E S S E
|----------|------------|----------|-------------------|--------------------|
|----------|------------|----------|-------------------|--------------------|
|-9--------|-10----6----|-8--------|-------------------|--------------------|
|-8--------|-10----6----|-8--------|-------------------|--------------------|
|-7--------|--8----4----|-6--------|-3-0-2-0-1-0-3-3-2-|-3-0-2-0-1-0-3-3-2--|
|-6--------|--8----4----|-6--------|-3-0-2-0-1-0-3-3-2-|-3-0-2-0-1-0-3-3-2--|


  H    H      H    H
|-----------|-----------||----|
|-----------|-----------||----|
|------3----|-----------||----|
|-2----3----|-5----2----||----|
|-2----1----|-5----2----||----|
|-0---------|-3----0----||----|


    Q=210
     PM    PM    PM    PM-----|      PM       PM---|
     E  E  E  E  E  E  E  E    E  E  E  E  E  E  E  E
||--------------------------|--------------------------||
||o-------------------------|-------------------------o||
||--------------------------|--------------------------||
||------9-----8-----7-------|-----9-----8--9-----------||
||o--7----10-----9-----8----|--7----10--------------6-o||
||-----------------------10-|-----------------7--8-----||
|
|    E  E  E  E  E  E  E  E    E  E  E  E  E  E  E  E
||--------------------------|--------------------------||
||o-------------------------|-------------------------o||
||-----16----15----14-------|----16----15-16-----------||
||--14----17----16----15----|-14----17-------------13--||
||o----------------------17-|----------------14-15----o||
||--------------------------|--------------------------||


  E E E E E E E E   Q  Q  H
|-----------------|-----------|
|-----------------|-----------|
|-----------------|-----------|
|-2---2---2---2---|-2---------|
|-2---2---2---2---|-2---------|
|-0---0---0---0---|-0---------|
|
| E E E E E E E E   Q  Q  H
|-----------------|-----------|
|-----------------|-----------|
|-----------------|-----------|
|-2---2---2---2---|-2---------|
|-2---2---2---2---|-2---------|
|-0---0---0---0---|-0---------|


   E  E  E  E  E  E  E  E    Q  Q   H
|-------------------------|--------------*|
|-------------------------|--------------*|
|-------------------------|--------------*|
|-----9-----8-----7-----8-|--9-----------*|
|--7----10-----9-----9--6-|--7-----------*|
|--------------------7----|--------------*|
|
|  E  E  E  E  E  E  E  E    Q  Q   H
|-------------------------|--------------*|
|-------------------------|--------------*|
|----16----15----14----15-|-16-----------*|
|-14----17----16----16-13-|-14-----------*|
|-------------------14----|--------------*|
|-------------------------|--------------*|


End.

comments
We did not receive enough feedback on this tab! Please rate:
print report bad tab
1 2 3 4 5
I want to post or [tab]
guest
You may want to rate the tab now too:
select rating
Please do not post tabs as comments. Select "correction" instead!