Oops, an error
Loading. Please wait.

Pigs Bloated Face Tab

276 views 1 this week
no commentswrite comment
1 2 3 4 5
please rate
Autoscroll
+/-
esc
set tempo
stop
Contributor
WARNING: You are trying to view
                                    content from Ultimate-Guitar.com
                                    in an unauthorized application,
                                    which is prohibited.

                                    Please use an official Ultimate
                                    Guitar Tabs application for iPhone,
                                    iPad or Android to access legitimate
                                    chords, guitar, bass, and drum tabs
                                    from Ultimate-Guitar.com database.

                                    Type "ultimate guitar tabs" in Apple
                                    App Store's or Android Market's
                                    search to find the application.
#----------------------------------PLEASE NOTE---------------------------------#
#This file is the author's own work and represents their interpretation of the #
#song. You may only use this file for private study, scholarship, or research. #
#------------------------------------------------------------------------------#

                               PIG'S BLOATED FACE
                             As recorded by Gorod
                     (From the 2005 ALBUM Neurotripsticks)

Tabbed by Gorod
Gtr I (D G C F A D) - 'Untitled'


  Q=125
 4/4
  PM--|   PM----|   PM  PM--------------|   PM----|   PM  PM|
  S S S S S S S S S S S S S S S S   S S S S S S S S S S S S S S E
|---------------------------------|-------------------------------|
|---------------------------------|-------------------------------|
|---------------------------------|-------------------------------|
|---------------------------------|-------------------------------|
|-------1---------3---2-----------|-------1---------3---2-----4---|
|-0-1-2---2-1-2-1---1---1-0-3-2-1-|-0-1-2---2-1-2-1---1---1-0-----|


   4/4
    Gtr I
    PM--|   PM----|   PM  PM--------------|   PM----|   PM  PM|
    S S S S S S S S S S S S S S S S   S S S S S S S S S S S S S S E
||----------------------------------|------------------------------|
||o---------------------------------|------------------------------|
||----------------------------------|------------------------------|
||----------------------------------|------------------------------|
||o-------1---------3---2-----------|-------1---------3---2-----4--|
||--0-1-2---2-1-2-1---1---1-0-3-2-1-|-0-1-2---2-1-2-1---1---1-0----|


  PM--|   PM----|   PM  PM--------------|   PM----|   PM  PM  PM  PM
  S S S S S S S S S S S S S S S S   S S S S S S S S S S S S S S S S
|---------------------------------|----------------------------------||
|---------------------------------|---------------------------------o||
|---------------------------------|----------------------------------||
|---------------------------------|----------------------------------||
|-------1---------3---2-----------|-------1---------3---2---4---3---o||
|-0-1-2---2-1-2-1---1---1-0-3-2-1-|-0-1-2---2-1-2-1---1---1---1---1--||


                ~~~
    S  S  S  S  E.   S +S   S  S  S  Q
||--------------------------------------------|
||o-------------------------------------------|
||--------------------------------------------|
||-----------9--8-----------------9--8tr9-----|
||o-7--9-10----------7-(7)--9-10--------------|
||--------------------------------------------|
|
|               ~~~
|   S  S  S  S  E.   S +S   S  S  S  Q
||--------------------------------------------|
||o-------------------------------------------|
||----------11-10----------------11-10tr11----|
||--9-11-12----------9-(9)-11-12--------------|
||o-------------------------------------------|
||--------------------------------------------|


              ~~~
  S  S  S  S  E.     S  +S   S  S  S  S  E.
|------------------------------------------------||
|-----------------------------------------------o||
|------------------------------------------------||
|----------9--8----/12-(12)-11--9--8-------------||
|-7--9-10----------------------------10--9b10r==o||
|------------------------------------------------||
|
|             ~~~
| S  S  S  S  E.     S  +S   S  S  S  S  E.
|------------------------------------------------||
|-----------------------------------------------o||
|---------11-10----/14-(14)-13-11-10-------------||
|-9-11-12----------------------------12-11b12r===||
|-----------------------------------------------o||
|------------------------------------------------||


                                                 2/4
  S  S  S  S  S  S  S  S  S  S  S  S  S  S  S S          H
|-----------------------------------------------|---------------|
|-----------------------------------------------|---------------|
|------------------------------------------11---|---------------|
|----------9--8-------12-11--9--8--------8------|---------------|
|-7--9-10-------10--9-------------10--9---------|---------------|
|-----------------------------------------------|---------------|
|
| S  S  S  S  S  S  S  S  S  S  S  S  S  S  S S            H
|-----------------------------------------------|---------------|
|------------------------------------------14---|---------------|
|---------11-10-------14-13-11-10-------10------|---------------|
|-9-11-12-------12-11-------------12-11---------|---------------|
|-----------------------------------------------|---------------|
|-----------------------------------------------|---------------|


   4/4
    S  S  S S  S  S S  S  S  S S  S  S S  S  S  8x
||----------------------------------------------||
||o--------------------------------------------o||
||----------------------------------------------||
||-----7-------8-------8-------5-------5--------||
||o-------6-------6-------7-------7-------7----o||
||--5-------5-------5--------6-------6-------6--||
|
|   S  S  S S  S  S S  S  S  S S  S  S S  S  S  8x
||----------------------------------------------||
||o--------------------------------------------o||
||----11------12------12-------9-------9--------||
||-------10------10------11------11------11-----||
||o-9-------9-------9-------10------10------10-o||
||----------------------------------------------||


   PM-----------------------|
   E   E   E   E   E  E  E  E
|------------------------------|
|------------------------------|
|------------------------------|
|--4---7---6---4---3--4--6--7--|
|--4---7---6---4---3--4--6--7--|
|--2---5---4---2---1--2--4--5--|
|
|                  ~~
|  E   E   E   E   H
|------------------------------|
|------------------------------|
|-11--14--13--11--10-----------|
|------------------------------|
|--9--12--11---9---8-----------|
|------------------------------|


 2/4            4/4
                    PM   PM   PM   PM
  E  E  E  E      S S  S S  S S  S S  E  E  E  E
|------------||----------------------------------|
|------------||o---------------------------------|
|-6--4--7--9-||-----------------------6--4--7--9-|
|-4--2--5--7-||--------4----5----4----4--2--5--7-|
|------------||o--4------------------------------|
|------------||-----2----2----2----2-------------|
|
|                   PM   PM   PM   PM
| E  E  E  E      S S  S S  S S  S S  E  E  E  E
|------------||----------------------------------|
|------------||o---------------------------------|
|-6--4--7--9-||-------11---12---11----6--4--7--9-|
|------------||--11------------------------------|
|-4--2--5--7-||o----9----9----9----9--4--2--5--7-|
|------------||----------------------------------|


     PM|    PM|    PM
   S S S  S S S  S S E  E  E  E
|----------------------------------||
|---------------------------------o||
|--------------------6--4--7--9----||
|---------4------5---4--2--5--7----||
|--4------------------------------o||
|----2-2----2-2----2---------------||
|
|    PM|    PM|    PM
|  S S S  S S S  S S E  E  E  E
|----------------------------------||
|---------------------------------o||
|--------11-----12---6--4--7--9----||
|-11-------------------------------||
|----9-9----9-9----9-4--2--5--7---o||
|----------------------------------||


   4/4
        PM    PM    PM    PM
                             |------6-------|  |------6-------|
     S  S  S  S  S  S  S  S  S  S  S  S  S  S  S  S  S  S  S  S  4x
||---------------------------------------------------------------||
||o-------------------------------------------------------------o||
||---------------------------------------------------------------||
||---------5-----6-----5-----6p=5p=3-----------5p=3--------------||
||o--5--------------------------------6p=5p=3--------6p=5p=3--3-o||
||------3-----3-----3-----3--------------------------------------||
|
|       PM    PM    PM    PM
|                            |------6-------|  |------6-------|
|    S  S  S  S  S  S  S  S  S  S  S  S  S  S  S  S  S  S  S  S  4x
||---------------------------------------------------------------||
||o-------------------------------------------------------------o||
||--------12----13----12----13p12p10----------12p10--------------||
||--12-------------------------------13p12p10-------13p12p10-10--||
||o----10----10----10----10-------------------------------------o||
||---------------------------------------------------------------||


  PM--|   PM  PM  PM
  S S S S S S S S S S S S S S S S
|---------------------------------|
|---------------------------------|
|---------------------------------|
|---------------5---6-5-3---------|
|-------5---6-------------6-5-3---|
|-3-3-3---3---3---3-------------6-|
|
| PM--|   PM  PM  PM
| S S S S S S S S S S S S S S S S
|---------------------------------|
|---------------------------------|
|---------------------------------|
|---------------5---6-5-3---------|
|-------5---6-------------6-5-3---|
|-3-3-3---3---3---3-------------6-|


        PM|          PM|
   E  E S S  E  E  E S S E
|--------------------------|
|--------------------------|
|-/8-/8-----/8-/8-/8-------|
|------------------------6-|
|-/6-/6-----/6-/6-/6-----6-|
|-------4-4----------4-4-4-|


  PM--|   PM  PM  PM                      PM|          PM|
  S S S S S S S S S S S S S S S S    E  E S S E   E  E S S E
|---------------------------------|--------------------------|
|---------------------------------|--------------------------|
|---------------------------------|-/8-/8--------/8-/8-------|
|---------------5---6-5-3---------|-----------6------------6-|
|-------5---6-------------6-5-3---|-/6-/6-----6--/6-/6-----6-|
|-3-3-3---3---3---3-------------6-|-------4-4-4--------4-4-4-|


  PM----------------------------|           PM|            PM|
  S S S S S S S S S S S S S S S S    E   E  S S E   E   E  S S E
|---------------------------------|---------------------------------|
|---------------------------------|---------------------------------|
|---------------------------------|-/8--/8---------/8--/8-----------|
|---------------------------------|-------------6--------------6----|
|---------------------------------|-/6--/6------6--/6--/6------6----|
|-3-3-3-3-3-3-3-3-3-3-3-3-3-3-3-3-|---------4-4-4----------4-4-4----|


  PM--|   PM  PM  PM                        PM|             PM|
  S S S S S S S S S S S S S S S S    E   E  S S  E   E   E  S S E
|---------------------------------|---------------------------------||
|---------------------------------|--------------------------------o||
|---------------------------------|-/8--/8------/8--/8--/8----------||
|---------------5---6-5-3---------|-----------------------------6---||
|-------5---6-------------6-5-3---|-/6--/6------/6--/6--/6------6--o||
|-3-3-3---3---3---3-------------6-|---------4-4-------------4-4-4---||


    PM        PM ~      PM              PM
    E.   E.   E  H      E.   E.   E  E  E  E  E  4x
||--------------------|--------------------------||
||o-------------------|-------------------------o||
||--------------------|--------------------------||
||-------5-------8----|------5-------------3--5--||
||o--------------7----|-----------------3-------o||
||--3---------3--6----|-3---------3--1-----------||
|
|   PM        PM ~      PM              PM
|   E.   E.   E  H      E.   E.   E  E  E  E  E  4x
||--------------------|--------------------------||
||o-------------------|-------------------------o||
||---------------9----|--------------------------||
||-------5-------8----|--------------------3--5--||
||o--------------7----|------5----------3-------o||
||--3---------3-------|-3---------3--1-----------||


  PM---------------------|
  E    E    E  E    E    E   H.       Q
|--------------------------|-------------|
|--------------------------|-------------|
|--------------------------|-------------|
|-2----4----5--4----2----4-|-5-----------|
|-2----4----5--4----2----4-|-5-----------|
|-0----2----3--2----0----2-|-3-----------|
|
| E.   E.   E  E.   E.   E   H.       Q
|--------------------------|-------------|
|--------------------------|-------------|
|-----------9--8-----------|-------------|
|-8----7------------7----8-|-9-----------|
|-----------7--6-----------|-------------|
|-6----5------------5----6-|-7-----------|


     S  S  S  S  S  S  S  S  S  S  S  S  S  S  S  S  4x
||---------------------------------------------------||
||o-------------------------------------------------o||
||-----14-------15-------15-------12-------12--------||
||--------13-------13-------14-------14-------14-----||
||o-12-------12-------12-------13-------13-------13-o||
||---------------------------------------------------||
|
|    S  S  S  S  S  S  S  S  S  S  S  S  S  S  S  S  4x
||---------------------------------------------------||
||o-------------------------------------------------o||
||-----11-------12-------12--------9--------9--------||
||--------10-------10-------11-------11-------11-----||
||o--9--------9--------9-------10-------10-------10-o||
||---------------------------------------------------||


   S  S  S  S  S  S  S  S  S  S  S  S  S  S  S  S   4x
|---------------------------------------------------||
|--------------------------------------------------o||
|---------------------------------------------------||
|-----5--------6--------6--------3--------3---------||
|--------4--------4--------5--------5--------5-----o||
|--3--------3--------3--------4--------4--------4---||
|
|  S  S  S  S  S  S  S  S  S  S  S  S  S  S  S  S   4x
|---------------------------------------------------||
|--------------------------------------------------o||
|----12-------13-------13-------10-------10---------||
|-------11-------11-------12-------12-------12------||
|-10-------10-------10-------11-------11-------11--o||
|---------------------------------------------------||


    PM--|   PM----|   PM  PM------|
    S S S S S S S S S S S S S S S S
||----------------------------------|
||o---------------------------------|
||----------------------------------|
||----------------------------------|
||o-------1---------3---2-----------|
||--0-1-2---2-1-2-1---1---1-0-3-2-1-|
|
|   PM--|   PM----|   PM  PM------|
|   S S S S S S S S S S S S S S S S
||----------------------------------|
||o---------------------------------|
||----------------------------------|
||----------------------------------|
||o-------1---------3---2-----------|
||--0-1-2---2-1-2-1---1---1-0-3-2-1-|


   S  S  S  S  S  S  S  S  S  S  S  S  S  S  S  S
|------------------------------------------------|
|------------------------------------------------|
|------------------------------------------------|
|-----5--------6--------6--------3--------3------|
|--------4--------4--------5--------5--------5---|
|--3--------3--------3--------4--------4--------4|
|
|  S  S  S  S  S  S  S  S  S  S  S  S  S  S  S  S
|------------------------------------------------|
|------------------------------------------------|
|----12-------13-------13-------10-------10------|
|-------11-------11-------12-------12-------12---|
|-10-------10-------10-------11-------11-------11|
|------------------------------------------------|


  PM--|   PM----|   PM  PM------|
  S S S S S S S S S S S S S S S S
|---------------------------------|
|---------------------------------|
|---------------------------------|
|---------------------------------|
|-------1---------3---2-----------|
|-0-1-2---2-1-2-1---1---1-0-3-2-1-|
|
| PM--|   PM----|   PM  PM------|
| S S S S S S S S S S S S S S S S
|---------------------------------|
|---------------------------------|
|---------------------------------|
|---------------------------------|
|-------1---------3---2-----------|
|-0-1-2---2-1-2-1---1---1-0-3-2-1-|


                                             ~~
   S  S  S  S  S  S  S  S  S  S  S  S  S  S  E
|--------------------------------------------------||
|-------------------------------------------------o||
|--------------------------------------------------||
|-----5--------6--------5--------5--------5--6-----||
|--------4--------4--------4--------4-------------o||
|--3--------3--------3--------3--------3-----------||
|
|                                            ~~
|  S  S  S  S  S  S  S  S  S  S  S  S  S  S  E
|--------------------------------------------------||
|-------------------------------------------------o||
|----12-------13-------12-------12-------12-13-----||
|-------11-------11-------11-------11--------------||
|-10-------10-------10-------10-------10----------o||
|--------------------------------------------------||


   ~~~~~~~~~~~~~  PM-|    ~~   PM-|    ~~ PM|
  +W          Q   Q   Q   Q    Q   Q   Q  E E
|---------||----------------|-----------------|
|---------||----------------|-----------------|
|---------||----------------|-----------------|
|-(6)-----||--5-----------5-|----------6------|
|---------||----------4-----|------4------2-2-|
|---------||------3---------|--3----------0-0-|
|
|  ~~~~~~~~~~~~~  PM-|    ~~   PM-|    ~~ PM|
|  W          Q   Q   Q   Q    Q   Q   Q  E E
|---------||----------------|-----------------|
|---------||----------------|-----------------|
|-13------||-12----------12-|---------13------|
|---------||---------11-----|-----11----------|
|---------||-----10---------|-10----------2-2-|
|---------||----------------|-------------0-0-|


          PM ~~~~~~~~               ~    PM----------------------|
    Q  Q  Q  Q   +Q   E E E E E E   H    E E E E   E E E E E E E E
||-------------|------------------|--------------|-----------------|
||o------------|------------------|--------------|-----------------|
||-------------|------9-9-9s6-6---|--------------|-----------------|
||--5--4-------|----------------8-|-8------------|-----------------|
||o-5--4-----4-|-(4)--7-7-7s4-4---|--------4---4-|-5---4-5---5-4---|
||--3--2--0--3-|-(3)------------6-|-6----0-2-0-2-|-3-0-2-3-0-3-2-0-|


        PM ~~~~~~~~~
  Q  Q  Q  Q    +Q    E  E  E E E E
|-------------|---------------------|
|-------------|---------------------|
|-------------|-------9--9--9s6-6---|
|-5--4--------|-------------------8-|
|-5--4-----4--|-(4)---7--7--7s4-4---|
|-3--2--0--3--|-(3)---------------6-|
|
|       PM ~
| Q  Q  Q  Q    +Q    E  E  E E E E
|-------------|---------------------|
|-------------|---------------------|
|-------------|------12-12-12s9-9s6-|
|-5--4--------|---------------------|
|-5--4-----4--|-(4)--10-10-10s7-7s4-|
|-3--2--0--3--|-(3)-----------------|


  ~
  H    S S S S S S S S   S S S S S S S S S S S S S S S S
|----------------------|----------------------------------||
|----------------------|---------------------------------o||
|----------------------|----------------------------------||
|-8--------------------|----------------------------------||
|------------------3---|---------------------3-----------o||
|-6----3-0-2-5-3-2---5-|-3-5-3-2-3-0-2-5-3-2---5-3-5-3-2--||
|
| ~
| H    S S S S S S S S   S S S S S S S S S S S S S S S S
|----------------------|----------------------------------||
|----------------------|---------------------------------o||
|-6--------------------|----------------------------------||
|----------------------|----------------------------------||
|-4----------------3---|---------------------3-----------o||
|------3-0-2-5-3-2---5-|-3-5-3-2-3-0-2-5-3-2---5-3-5-3-2--||


 6/8                        12/8
                                             ~~~  PM--|              PM----|
  S S S S S S S S S S  S S    S S  S S  S S  Q.   S S  S S S  S S S  S S S  S
|--------------------------|---------------------------------------------------|
|--------------------------|---------------------------------------------------|
|--------------------------|--9-6----6-------------------6-7--9-7-6------------|
|--------------------------|-------8----8-5--8----5-7--8-------------8-7-5-----|
|-3-----2s3-3s5-5s7-7------|------------------------------------------------8--|
|---5-3----------------8-7-|---------------------------------------------------|
|
|                                            ~~~  PM--|              PM----|
| S S S S S S S S S S  S S    S S  S S  S S  Q.   S S  S S S  S S S  S S S  S
|--------------------------|---------------------------------------------------|
|--------------------------|---------------------------------------------------|
|-5-----4s5-5s7-7s9-9------|-12-9----9-----------------------------------------|
|---7-5---------------10-9-|------11---11-8-11-----------8-9-11-9-8------------|
|--------------------------|----------------------7-9-10------------10-9-7-----|
|--------------------------|-----------------------------------------------10--|


  PM-----|
  E   E  E  S S S S S S  S  S S  S  S  S  S  S  S  S  S S
|---------------------------------------------------------|
|---------------------------------------------------------|
|--------7--6h7p6h7p6h7--9----6-------------------------6-|
|-5---8---------------------8-------8-----------------8---|
|-------------------------------10-----7-10-----7-10------|
|--------------------------------------------9------------|
|
| PM-----|
| E   E  E  S S S S S S  S  S S  S  S  S  S  S  S  S  S S
|---------------------------------------------------------|
|---------------------------------------------------------|
|-----------------------12----9-------------------------9-|
|--------9--8h9p8h9p8h9----11------11----------------11---|
|-7--10-------------------------13----10-13----10-13------|
|-------------------------------------------12------------|


                    ~~~                    ~~~
   Q.               Q.   +E     E     E    Q.
|-----------------------------------------------------------|
|-----------------------------------------------------------|
|-------------------9----(9)S===8-----8S==11----------------|
|--7--------------------------------------------------------|
|-------------------7----(7)S===6-----6S===9----------------|
|--5--------------------------------------------------------|
|
|                   ~~~
|  S   S S  S  S S  Q.    S   S S  S  S S  S   S S  S  S S
|-----------------------------------------------------------|
|-----------------------------------------------------------|
|-11-----9---------------11-----9------------------------9--|
|-----10------10-------------10------10---------------10----|
|----------12----9-12-------------12----9-12-----9-12-------|
|---------------------------------------------11------------|


   S S  S S  S S  S S  S S  S S  S S  S S  S S  S S  S S  S S
|-------------------------------------------------------------|
|-------------------------------------------------------------|
|-----------------------------------------------9-------------|
|-----------------9--------------9---10----9---------9---10---|
|--9---10----9---------9---10------7----7----7----7----7----7-|
|----7----7----7----7----7----7-------------------------------|
|
|  S S  S S  S S  S S  S S  S S  S S  S S  S S  S S  S S  S S
|-------------------------------------------------------------|
|----------------12----------------------------12-------------|
|-11---12---11--------11---12---11---12---11--------11---12---|
|----9----9----9----9----9----9----9----9----9----9----9----9-|
|-------------------------------------------------------------|
|-------------------------------------------------------------|


   ~~~                               ~~~
   Q.               S   S S  S  S S  Q.               S   S S  S  S S
|----------------------------------------------------------------------|
|----------------------------------------------------------------------|
|------------------11-----9--------------------------11-----9----------|
|-10-------------------10------10------------------------10------10----|
|---------------------------12----9--9------------------------12----9--|
|----------------------------------------------------------------------|
|
|                   ~~~                               ~~~
|  S   S S  S  S S  Q.               S   S S  S  S S  Q.
|----------------------------------------------------------------------|
|----------------------------------------------------------------------|
|-11-----9--------------------------11-----9---------------------------|
|-----10------10------------------------10------10---------------------|
|----------12----9-12------------------------12----9--6----------------|
|----------------------------------------------------------------------|


                                              ~~~
   S S  S S  S S  S S  S S  S S  S S S S S S  Q.
|-------------------------------12p7-------7-12--|
|------------------------------------8---8-------|
|-11---12---11---11---10---11----------9---------|
|----9----9----9----9----9----9------------------|
|------------------------------------------------|
|------------------------------------------------|
|
|                                             ~~~
|  S S  S S  S S  S S  S S  S S  S S S S S S  Q.
|--------------------------------7p3-------3--7--|
|------------------------------------5---5-------|
|--------------------------------------4---------|
|--9---10----9----9----8----9--------------------|
|----7----7----7----7----7----7------------------|
|------------------------------------------------|


    PM--------------------|
    E E S S E E S S E E S S S S S S S S  4x
||---------------------------------------||
||o-------------------------------------o||
||---------------------------------------||
||--4-4-4-4-4-4-4-4-4-4-4-4--------------||
||o-4-4-4-4-4-4-4-4-4-4-4-4-4-3-3-3-4-5-o||
||--2-2-2-2-2-2-2-2-2-2-2-2--------------||
|
|   PM--------------------|
|   E E S S E E S S E E S S S S S S S S  4x
||---------------------------------------||
||o-------------------------------------o||
||---------------------------------------||
||--4-4-4-4-4-4-4-4-4-4-4-4--------------||
||o-4-4-4-4-4-4-4-4-4-4-4-4-4-3-3-3-4-5-o||
||--2-2-2-2-2-2-2-2-2-2-2-2--------------||


                ~~~
  S S S S S  S  Q.   S S S S S  S S S  S S S S
|----------------------------------------------|
|----------------------------------------------|
|----------------------------------------------|
|-9-8-8-8-9-10-10----9-8-8-8-9-10-9-8----------|
|-------------------------------------10-9-8-7-|
|----------------------------------------------|
|
|               ~~~
| S S S S S  S  Q.   S S S S S  S S S  S S S S
|----------------------------------------------|
|----------------------------------------------|
|----------------------------------------------|
|----------------------------------------------|
|-7-6-6-6-7--8--8----7-6-6-6-7--8-7-6----------|
|--------------------------------------8-7-6-5-|


                ~~~
  S S S S S  S  Q.   S S S S S  S S S  S S S S
|----------------------------------------------|
|----------------------------------------------|
|----------------------------------------------|
|-9-8-8-8-9-10-10----9-8-8-8-9-10-9-8----------|
|-------------------------------------10-9-8-7-|
|----------------------------------------------|
|
|               ~~~
| S S S S S  S  Q.   S S S S S  S S S  S S S S
|----------------------------------------------|
|----------------------------------------------|
|-9-8-8-8-9-10-10----9-8-8-8-9-10-9-8----------|
|-------------------------------------10-9-8-7-|
|----------------------------------------------|
|----------------------------------------------|


    PM  PM|   PM  PM|   PM  PM|   PM
    S S S S S S S S S S S S S S S S E  S S S S S S
||---------------------------------------------------||
||o-------------------------------------------------o||
||---------------------------------------------------||
||--4---4-4---4---4-4---4---4-4---4------------------||
||o-4---4-4---4---4-4---4---4-4---4----4-3-3-3-4-5--o||
||--2---2-2---2---2-2---2---2-2---2------------------||
|
|   PM  PM|   PM  PM|   PM  PM|   PM
|   S S S S S S S S S S S S S S S S E  S S S S S S
||---------------------------------------------------||
||o-------------------------------------------------o||
||---------------------------------------------------||
||--4---4-4---4---4-4---4---4-4---4------------------||
||o-4---4-4---4---4-4---4---4-4---4----4-3-3-3-4-5--o||
||--2---2-2---2---2-2---2---2-2---2------------------||


    PM|   PM  PM|   PM  PM|   PM  PM|
    S S S S S S S S S S S S S S S S S S S S S S S S
||---------------------------------------------------||
||o-------------------------------------------------o||
||---------------------------------------------------||
||--4-4---4---4-4---4---4-4---4---4-4----------------||
||o-4-4---4---4-4---4---4-4---4---4-4---4-3-3-3-4-5-o||
||--2-2---2---2-2---2---2-2---2---2-2----------------||


       PM   PM   PM   PM   PM   PM
     S S  S S  S S  S S  S S  S S E  E  E  E  E  E  3x
||--------------------------------------------------||
||o------------------------------------------------o||
||--------------------------------6s=4s=7--7s=6s=9--||
||--------4----5----4-------------4s=2s=5--5s=4s=7--||
||o--4-------------------4----3--------------------o||
||-----2----2----2----2----2----2-------------------||
|
|    S S  S S  S S  S S  S S  S S E  E  E  E  E  E  3x
||--------------------------------------------------||
||o------------------------------------------------o||
||-------11---12---11-------------6s=4s=7--7s=6s=9--||
||--11------------------11---10---------------------||
||o----9----9----9----9----9----9-4s=2s=5--5s=4s=7-o||
||--------------------------------------------------||


     PM   PM   PM   PM   PM   PM
   S S  S S  S S  S S  S S  S S  S S  S  S S  S  S  S S  S  S S
|---------------------------------------------------------------|
|---------------------------------------------------------------|
|---------------------------------------------------------------|
|-------4----5----4------------------------2--4--5--4-2---------|
|--4-------------------4----3----4-2--4--5---------------5--4-2-|
|----2----2----2----2----2----2---------------------------------|
|
|  S S  S S  S S  S S  S S  S S  S S  S  S S  S  S  S S  S  S S
|---------------------------------------------------------------|
|---------------------------------------------------------------|
|------11---12---11------------------------9-11-12-11-9---------|
|-11------------------11---10---11-9-11-12--------------12-11-9-|
|----9----9----9----9----9----9---------------------------------|
|---------------------------------------------------------------|


 4/4
  PM----------------------------|
  S S S S S S S S S S S S S S S S
|---------------------------------|
|---------------------------------|
|---------------------------------|
|---------------------------------|
|---------------------------------|
|-3-3-3-3-3-3-3-3-3-3-3-3-3-3-3-3-|
|
| S S S S S S S S S S S S S S S S
|---------------------------------|
|---------------------------------|
|---------------------------------|
|---------------------------------|
|---------------------------------|
|-3-3-3-3-3-3-3-3-3-3-3-3-3-3-3-3-|


                                       ~~
   |------6-------|
   S  S  S  S  S  S  T  T  T  T  T  T  S  +S   S  S  S  S  S  S  S
|------------------------------------------------------------------||
|------------------------------------------------------------------||
|------------------------------------------------------------------||
|--6p=5p=3--6p=5p=3--6p=5p=3-----------5--(5)--3-------------------||
|-----------------------------6p=5p=3-------------6--5--3----------||
|----------------------------------------------------------6--4--3-||
|
|                                      ~~
|  |------6-------|
|  S  S  S  S  S  S  T  T  T  T  T  T  S  +S   S  S  S  S  S  S  S
|------------------------------------------------------------------||
|------------------------------------------------------------------||
|-13p12p10-13p12p10-13p12p10----------12-(12)-10-------------------||
|----------------------------13p12p10------------13-12-10----------||
|---------------------------------------------------------13-11-10-||
|------------------------------------------------------------------||


  H    S S  S S S  S S  S   S S  S S S  S S  S S  S  S  S  S  S  S  S
|-------------------------|-------------------------------------------|
|-------------------------|-------------------------------------------|
|-------------------------|----------------------------11-10----------|
|-------------9-8---------|--------9-8---------9-11-12-------12-11-12-|
|------7-9-10-----10-9-10-|-7-9-10-----10-9-10------------------------|
|-------------------------|-------------------------------------------|
|
|        W                  S S  S S S  S S  S S  S  S  S  S  S  S  S
|-------------------------|-------------------------------------------|
|-------------------------|-------------------------------------------|
|-------------------------|--------7-6------------------7--6----------|
|-------------------------|-5-7--8------8-7--8-5--7--8--------8--7--8-|
|-------------------------|-------------------------------------------|
|-------------------------|-------------------------------------------|


    S  S  S  S  S  S  S  S S  S  S  S  S  S  S  S     S S E  Q  H
||-------------------------------------------------||----------------*|
||o-----------------------------------------------o||----------------*|
||----------11-10------------------11-10-----------||----------------*|
||--9-11-12-------12-11-12-9-11-12-------12-11-12--||-9--------------*|
||o-----------------------------------------------o||----------------*|
||-------------------------------------------------||----------------*|
|
|   S  S  S  S  S  S  S  S S  S  S  S  S  S  S  S     S S E  Q  H
||-------------------------------------------------||----------------*|
||o-----------------------------------------------o||----------------*|
||-----------7--6-------------------7--6-----------||----------------*|
||--5--7--8--------8--7--8-5--7--8--------8--7--8--||-5--------------*|
||o-----------------------------------------------o||----------------*|
||-------------------------------------------------||----------------*|


End.
comments
We did not receive enough feedback on this tab! Please rate:
1 2 3 4 5
I want to post or [tab]
guest
You may want to rate the tab now too:
select rating
Please do not post tabs as comments. Select "correction" instead!