Oops, an error
Loading. Please wait.

Rusted Nails Attack Tab

ver1
ver1

Whole song

Interactive

More versions @911Tabs.com
260 views 1 this week
no commentswrite comment
1 2 3 4 5
please rate
Autoscroll
+/-
esc
set tempo
stop
Contributor
WARNING: You are trying to view
                                    content from Ultimate-Guitar.com
                                    in an unauthorized application,
                                    which is prohibited.

                                    Please use an official Ultimate
                                    Guitar Tabs application for iPhone,
                                    iPad or Android to access legitimate
                                    chords, guitar, bass, and drum tabs
                                    from Ultimate-Guitar.com database.

                                    Type "ultimate guitar tabs" in Apple
                                    App Store's or Android Market's
                                    search to find the application.
        #----------------------------------PLEASE NOTE---------------------------------#
        #This file is the author's own work and represents their interpretation of the #
        #song. You may only use this file for private study, scholarship, or research. #
        #------------------------------------------------------------------------------#
 
                                       RUSTED NAILS ATTACK
                                      As recorded by Gorod
 
Tabbed by Gorod

Gtr I (D G C F A D) - 'Untitled'


 4/4
  Gtr I
                       ~  PM|           PM|   PM|
  H    Q   Q        Q  Q  E E E E   +E  E E E E E S S E
|--------------||-----------------|---------------------|
|--------------||o----------------|---------------------|
|--------------||-----------------|---------------------|
|--------------||-----------------|---------------7h8p7-|
|--------------||o-----5------6s5-|-(5)-----3---6-------|
|---------/x\--||--/6-----0-0-4s3-|-(3)-0-2---5---------|


      ~  PM|           PM|   PM|
   Q  Q  E E E E   +E  E E E E E  S  S  E      H     Q.    E    +Q.    Q.    Q
|----------------|-------------------------||----------------|-----------------|
|----------------|------------------------o||-11----10-----7-|--(7)----8----10-|
|----------------|-------------------------||----------------|-----------------|
|----------------|----------------7h=8p=7--||--8-----7-----4-|--(4)----5-----7-|
|-----5------6s5-|-(5)-----3---6----------o||----------------|-----------------|
|-/6-----0-0-4s3-|-(3)-0-2---5-------------||----------------|-----------------|
|
|     ~  PM|           PM|   PM|
|  Q  Q  E E E E   +E  E E E E E  S  S  E      H     Q.    E    +Q.    Q.    Q
|----------------|-------------------------||----------------|-----------------|
|----------------|------------------------o||-14----13----10-|-(10)---11----13-|
|----------------|-------------------------||----------------|-----------------|
|----------------|---------------10h11p10--||-11----10-----7-|--(7)----8----10-|
|-----5------6s5-|-(5)-----3---9----------o||----------------|-----------------|
|-/6-----0-0-4s3-|-(3)-0-2---8-------------||----------------|-----------------|


                     \1
   H     Q.    E    +W             H     Q.    E
|----------------|-------------|-----------------|
|-11----10-----7-|--(7)--------|-/11----10-----7-|
|----------------|-------------|-----------------|
|--8-----7-----4-|--(4)--------|--/8-----7-----4-|
|----------------|-------------|-----------------|
|----------------|-------------|-----------------|
|
|                    \1
|  H     Q.    E    +W             H     Q.    E
|----------------|-------------|-----------------|
|-14----13----10-|-(10)--------|-/14----13----10-|
|----------------|-------------|-----------------|
|-11----10-----7-|--(7)--------|-/11----10-----7-|
|----------------|-------------|-----------------|
|----------------|-------------|-----------------|


          \0.25/    \0.25/     \0.25/                 \1
   +Q.    Q.        Q          H          Q.    E    +W
|---------------------------|---------------------|---------|
|--(7)----8--------10-------|-11---------10-----7-|--(7)----|
|---------------------------|---------------------|---------|
|--(4)----5---------7-------|--8----------7-----4-|--(4)----|
|---------------------------|---------------------|---------|
|---------------------------|---------------------|---------|
|
|         \0.25/    \0.25/     \0.25/                 \1
|  +Q.    Q.        Q          H          Q.    E    +W
|---------------------------|---------------------|---------|
|-(10)---11--------13-------|-14---------13----10-|-(10)----|
|---------------------------|---------------------|---------|
|--(7)----8--------10-------|-11---------10-----7-|--(7)----|
|---------------------------|---------------------|---------|
|---------------------------|---------------------|---------|


 7/8
    PM--|   PM      PM--|   PM      PM--|   PM
  E E E E E E E   E E E E E E E   E E E E E E E
|---------------|---------------|---------------|
|---------------|---------------|---------------|
|---------------|---------------|---------------|
|---------------|---------------|---------------|
|-5-------5---5-|-4-------4---4-|-5-------5---5-|
|---6-5-6---6---|---5-3-5---5---|---6-5-6---6---|


    PM--|   PM       PM--|     PM
  E E E E E E E   E  E E  E E  E E
|---------------|-------------------|
|---------------|-------------------|
|---------------|-------------------|
|-5-------5---5-|-8---------8----8--|
|---7-5-7---7---|---10-7-10---10----|
|---------------|-------------------|


                                 9/8
    PM--|   PM      PM--|   PM
  E E E E E E E   E E E E E E E   S S S S S S S S S S S S S S S S S S
|---------------|---------------|-------------------------------------|
|---------------|---------------|-------------------------------------|
|---------------|---------------|-------------------------------------|
|-7-------7---7-|-6-------6---6-|-7h9p7h9-----------------------------|
|---8-7-8---8---|---7-5-7---7---|---------7h8p7h8-5h7p5h7-4h5p4h5p4h5-|
|---------------|---------------|-------------------------------------|


 7/8                                             4/4
    PM--|   PM      PM--|   PM      PM--|   PM
  E E E E E E E   E E E E E E E   E E E E E E E   W
|---------------|---------------|---------------|------||
|---------------|---------------|---------------|------||
|---------------|---------------|---------------|------||
|-5-------5---5-|-3-------3---3-|---------------|------||
|---7-5-7---7---|---5-4-5---5---|-7-------7---7-|-5----||
|---------------|---------------|---9-7-9---9---|------||


    PM----------------------------------------|
    E E E E E E E E   E E E E E E E E   E E E E Q  Q
||------------------|-----------------|---------------|
||o-----------------|-----------------|---------------|
||------------------|-----------------|---------7--7--|
||------------------|-----------------|-4-4-4-4-7--7--|
||o-----------------|-----------------|-4-4-4-4-5--5--|
||--7-0-6-0-5-0-4-0-|-6-0-5-0-4-0-3-0-|-2-2-2-2-------|


  S S S S  S  S  S  S  S  S  S  S S S S S
|------------------------------------------||
|-----------------------------------------o||
|---------10-10-10-10----------------------||
|-8-8-8-8--3--3--3--3-11-11-11-11----------||
|-1-1-1-1--------------4--4--4--4-9-9-9-9-o||
|---------------------------------2-2-2-2--||
  S S S S  S  S  S  S  S  S  S  S S S S S


    S S S S S S S S S S S S S S S S   S S S S S S S S S S S S S S S S
||----------------------------------|---------------------------------|
||o---------------------------------|---------------------------------|
||----------------------------------|---------------------------------|
||--7-7-7-7-7-7-7-7-7-7-7-7-7-7-7-7-|-5-5-5-5-5-5-5-5-7-7-7-7-7-7-7-7-|
||o-7-7-7-7-7-7-7-7-7-7-7-7-7-7-7-7-|-5-5-5-5-5-5-5-5-7-7-7-7-7-7-7-7-|
||----------------------------------|---------------------------------|
    S S S S S S S S S S S S S S S S   S S S S S S S S S S S S S S S S


  PM-|                      PM-|
  E  E  Q     E   E   Q     E  E  Q     E   E   Q
|-------------------------|----------------------------||
|-------------------------|---------------------------o||
|-----------/10--10--10\--|-----------/10--10--10\-----||
|-------3-----------------|-------3--------------------||
|-------3----/8---8---8\--|-------3----/8---8---8\----o||
|-1--1--1-----------------|-1--1--1--------------------||


  S S S S S S S S S S S S S S S S   S S S S S S S S S S S S S S S S
|-7p0-6p0-5p0-4p0-3p0-5p0-7p0-8p0-|-7p0-6p0-5p0-4p0-3p0-5p0-7p0-8p0-|
|---------------------------------|---------------------------------|
|---------------------------------|---------------------------------|
|---------------------------------|---------------------------------|
|---------------------------------|---------------------------------|
|---------------------------------|---------------------------------|
|
| S S S S S S S S S S S S S S S S   S S S S S S S S S S S S S S S S
|---------------------------------|---------------------------------|
|---------------------------------|---------------------------------|
|---------------------------------|---------------------------------|
|---------------------------------|---------------------------------|
|---------------------------------|---------------------------------|
|-7p0-6p0-5p0-4p0-3p0-5p0-7p0-8p0-|-7p0-6p0-5p0-4p0-3p0-5p0-7p0-8p0-|


  S S S S S S S S  S S S S S S S S    S S  S S  S S  S S  S S  S S  S S  S S
|----------------------------------|-----------------------------------------|
|----------------------------------|-----------------------------------------|
|-7p0-5p0-7p0-8p0-10p0-8p0-7p0-8p0-|-----------------------------------------|
|----------------------------------|-12p0-10p0-12p0-13p0-15p0-13p0-12p0-13p0-|
|----------------------------------|-----------------------------------------|
|----------------------------------|-----------------------------------------|
|
| S S S S S S S S  S S S S S S S S    S S  S S  S S  S S  S S  S S  S S  S S
|----------------------------------|-----------------------------------------|
|----------------------------------|-----------------------------------------|
|----------------------------------|-----------------------------------------|
|-7p0-5p0-7p0-8p0-10p0-8p0-7p0-8p0-|--7p0--5p0--7p0--8p0-10p0--8p0--7p0--8p0-|
|----------------------------------|-----------------------------------------|
|----------------------------------|-----------------------------------------|


  S S S S S S S S S S S S S S S S   S S S S S S S S S S S S S S S S
|-7p0-6p0-5p0-4p0-3p0-5p0-7p0-8p0-|-7p0-6p0-5p0-4p0-3p0-5p0-7p0-8p0---|
|---------------------------------|-----------------------------------|
|---------------------------------|-----------------------------------|
|---------------------------------|-----------------------------------|
|---------------------------------|-----------------------------------|
|---------------------------------|-----------------------------------|
|
| S S S S S S S S S S S S S S S S   S S S S S S S S S S S S S S S S
|---------------------------------|-----------------------------------|
|---------------------------------|-----------------------------------|
|---------------------------------|-----------------------------------|
|---------------------------------|-----------------------------------|
|---------------------------------|-----------------------------------|
|-7p0-6p0-5p0-4p0-3p0-5p0-7p0-8p0-|-7p0-6p0-5p0-4p0-3p0-5p0-7p0-8p0---|


                                       PM--|   PM|       PM----|   PM|
  S S S S S S S S  S S S S S S S S   S S S S S S S S +S  S S S S S S S
|----------------------------------|-----------------------------------||
|----------------------------------|-----------------------------------||
|-7p0-5p0-7p0-8p0-10p0-8p0-7p0-8p0-|-----------------------------------||
|----------------------------------|-----------------------------------||
|----------------------------------|-8-------7-----5-(5)---------4-----||
|----------------------------------|---6-6-6---6-6-------3-3-3-3---3-3-||
|
|                                      PM--|   PM|       PM----|   PM|
| S S S S S S S S  S S S S S S S S   S S S S S S S S +S  S S S S S S S
|----------------------------------|-----------------------------------||
|----------------------------------|-----------------------------------||
|----------------------------------|-----------------------------------||
|-7p0-5p0-7p0-8p0-10p0-8p0-7p0-8p0-|-----------------------------------||
|----------------------------------|-8-------7-----5-(5)---------4-----||
|----------------------------------|---6-6-6---6-6-------3-3-3-3---3-3-||


  2.
 12/8
    PM------|   PM----| ~     PM--------|   PM--|
  S S S S S S S S S S S S +E  S S S S S S S S S S
|-------------------------------------------------|
|-------------------------------------------------|
|-------------------------------------------------|
|-------------------------------------------------|
|-8-----------7---------5-(5)-------------4-------|
|---6-6-6-6-6---8-8-8-8-------3-3-3-3-3-3---3-3-3-|


    S S S S S S S S  S S  S S  S S S S  S S  S S  S  S  S  S
|------------------------------------------------------------|
|------------------------------------------------------------|
|------------------------------------------------------------|
|------------------------------------------------------------|
|---5-5-5-5-5-5-7-5--5-5--5-5--5-5-5-5--5-5--8-5--5--5--5--5-|
|------------------------------------------------------------|
|
|   ~~~                        ~~
|   H                E    E    Q        E    E    S  S  S  S
|------------------------------------------------------------|
|------------------------------------------------------------|
|-/14---------------13---14---15-------14---15---14-15-14-13-|
|------------------------------------------------------------|
|------------------------------------------------------------|
|------------------------------------------------------------|


   S S S S S S S S  S S  S S  E    E  S  E  S  Q
|---------------------------------------------------|
|---------------------------------------------------|
|---------------------------------------------------|
|----------------------------------8-----7-----5----|
|--4-4-4-4-4-4-5-4--4-4--4-4------10-----8-----7----|
|-----------------------------5---------------------|
|                                  E     E     Q
|
|  ~~                         ~~~
|  H                E    E    H.
|---------------------------------------------------|
|-15---------------15---17---17---------------------|
|---------------------------------------------------|
|---------------------------------------------------|
|---------------------------------------------------|
|---------------------------------------------------|


         ~~
   S  S  Q   S  S  S  S  S  S  S  S  S  S  S  S  S  S  S  S  S  S
|-----------------------------------------------------------------|
|-15h17h18--17h18p17p15----15h17h18p17p15-------------------------|
|-----------------------17----------------17p15p14h15p14h15-17p15-|
|-----------------------------------------------------------------|
|-----------------------------------------------------------------|
|-----------------------------------------------------------------|


                                                                     ~~
   S  S  S  S  S  S  S  S  S  S  S  S  S  S  S  S  S  S  S  S  S  S  E
|-------------------------------------------------13-17p13--------------|
|----------------------------------------------15----------15-----------|
|-------------------------------------------14----------------14--------|
|-17p15p14h15p14h15-17p15p14h15p14-------15----------------------15-----|
|----------------------------------12h17----------------------------17--|
|-----------------------------------------------------------------------|


   S  S  S  S  S  S  S  S  S  S  S  S  S  S  S  S  S  S  S  S  S  S  S  S
|-------------------------------------------------------------------------|
|----------------------------------------------------18-22p18-------------|
|----------------19-21p19----------------------19-21----------21-19-------|
|----------19-20----------20-19----------19-20----------------------20-19-|
|----19-20----------------------20-19-20----------------------------------|
|-22----------------------------------------------------------------------|
|
|  S  S  S  S  S  S  S  S  S  S  S  S  S  S  S  S  S  S  S  S  S  S  S  S
|-------------------------------------------------------------------------|
|-----------------------------------------------------6-10p=6-------------|
|-----------------7--9p=7-----------------------7--9-----------9--7-------|
|-----------7--8-----------8--7-----------7--8-----------------------8--7-|
|-----7--8-----------------------8--7--8----------------------------------|
|-10----------------------------------------------------------------------|


   S  S  S  S  S  S  S  S  S  S  S  S  S  S  S  S  S  S  S  S  S  S  S  S
|----------------18-22p18--------------------------------------------------|
|----------18-22----------22-18--------------------------------------------|
|----19-21----------------------21-19----19-21-19--------------------------|
|-20----------------------------------20----------20-19----19-20-19--------|
|-------------------------------------------------------19----------20-19--|
|--------------------------------------------------------------------------|
|
|  S  S  S  S  S  S  S  S  S  S  S  S  S  S  S  S  S  S  S  S  S  S  S  S
|-----------------6-10p=6--------------------------------------------------|
|-----------6-10----------10--6--------------------------------------------|
|-----7--9-----------------------9--7-----7--9--7--------------------------|
|--8-----------------------------------8-----------8--7-----7--8--7--------|
|--------------------------------------------------------7-----------8--7--|
|--------------------------------------------------------------------------|


   S  S  S  S  S  S  S  S  S  S  S  S  S  S  S  S  S  S  S  S  S  S  S  S
|-------------------------------------------------------------------------|
|-------------------------------------------------------------------------|
|----------------------------------------------------20-22p20-------------|
|----------------------20-21-20----------------20-21----------21-20-------|
|-18----------18-20-21----------21-20----20-21----------------------21-20-|
|----19-18-19-------------------------23----------------------------------|
|
|  S  S  S  S  S  S  S  S  S  S  S  S  S  S  S  S  S  S  S  S  S  S  S  S
|-------------------------------------------------------------------------|
|-------------------------------------------------------------------------|
|-----------------------------------------------------8-10p=8-------------|
|-----------------------8--9--8-----------------8--9-----------9--8-------|
|--6-----------6--8--9-----------9--8-----8--9-----------------------9--8-|
|-----7--6--7-------------------------11----------------------------------|


   S  S  S  S  S  S  S  S  S  S  S  S  S  S  S  S  S  S  S  S  S  S  S  S
|--------------------------------------------------------------------------|
|--------------------------------------------------------------------------|
|----------------------------------------------------19-21p19--------------|
|----------------------19-20-19----------------19-20----------20-19--------|
|-17----------17-19-20----------20-19----19-20----------------------20-19--|
|----18-17-18-------------------------22-----------------------------------|
|
|  S  S  S  S  S  S  S  S  S  S  S  S  S  S  S  S  S  S  S  S  S  S  S  S
|--------------------------------------------------------------------------|
|--------------------------------------------------------------------------|
|-----------------------------------------------------7--9p=7--------------|
|-----------------------7--8--7-----------------7--8-----------8--7--------|
|--5-----------5--7--8-----------8--7-----7--8-----------------------8--7--|
|-----6--5--6-------------------------10-----------------------------------|


  Q  Q  Q  S S S S S S S S S S S S
|----------------------------------|
|----------------------------------|
|----------------------------------|
|-7--5--3--------------------------|
|----------5-7-8-7-5---5-7-8-7-5---|
|--------------------6-----------6-|
|
| Q  Q  Q  S S S S S S S S S S S S
|----------------------------------|
|----------------------------------|
|-5--3--2--------------------------|
|----------------------------------|
|----------5-7-8-7-5---5-7-8-7-5---|
|--------------------6-----------6-|


 15/8
  Q  Q  Q  S S  S S S  S S S  S S  S  S    H
|----------------------------------------------|
|-------------------------------5--6--8--------|
|------------------------3-5--7----------------|
|-7--5--3---------3-5--7-----------------------|
|----------3-5--7------------------------------|
|----------------------------------------------|
|
| Q  Q  Q  S S  S S S  S S S  S S  S  S    H
|----------------------------------------------|
|-------------------------------8-10-11--------|
|-5--3--2----------------7-9-10----------------|
|-----------------7-8-10-----------------------|
|----------7-8-10------------------------------|
|----------------------------------------------|


   12/8
    S S S S S S S E S S S S S S S S S S E S S S
||----------------------------------------------|
||o---------------------------------------------|
||----------------------------------------------|
||----------------------------------------------|
||o---------------------------------------------|
||--0-0-0---0-0-0---0-0-0-0-0-0---0-0-0---0-0-0-|


  S S S S S S S E S S S S S S S S S S S S S S S    4x
|--------------------------------------------------||
|-------------------------------------------------o||
|--------------------------------------------------||
|-----------------------5-2-4---2------------------||
|-----------------------------5---3-5-2-3---2-----o||
|-0-0-0---0-0-0---0-0-0-------------------5---3----||


  4.
  S S S S S S S E S S S  S S  S  S S  S  S S  S  S S  S
|-------------------------------------------------------|
|-------------------------------------------------------|
|-----------------------12-9-11----9---------------9-11-|
|------------------------5-2--4-12-2-10-12-9-10-12-2--4-|
|--------------------------------5----3--5-2--3--5------|
|-0-0-0---0-0-0---0-0-0---------------------------------|
                         S S  S  S S  S  S S  S  S S  S


   S S  S  S S  S  S S  S  S S  S  S  S S  S  S  S  S  S  S  S  S  S
|----------------------------------------------------------------------|
|----------------------------------------------------------------------|
|-12-9-11----9---------------9-11-12-11-9-14-12-11-16-14-12-17-16-14---|
|--5-2--4-12-2-10-12-9-10-12-2--4--5--4-2--7--5--4--9--7--5-10--9--7---|
|----------5----3--5-2--3--5-------------------------------------------|
|----------------------------------------------------------------------|
   S S  S  S S  S  S S  S  S S  S  S  S S  S  S  S  S  S  S  S  S  S


 6/8
                     ~~~
   S  S  S  S  S  S  Q.
|------------------------|
|------------------------|
|------------------------|
|-12-10--9---------------|
|----------12-10--9------|
|-------------------12---|
|
|                    ~~~
|  S  S  S  S  S  S  Q.
|------------------------|
|------------------------|
|-19-17-16---------------|
|----------19-17-16------|
|-------------------19---|
|------------------------|


 12/8
   W.
|----------------------------------------------------------------------------|
|----------------------------------------------------------------------------|
|----------------------------------------------------------------------------|
|--3-------------------------------------------------------------------------|
|--3-------------------------------------------------------------------------|
|--1-------------------------------------------------------------------------|
|
|                                                         ~~
|  S   S  S  S  S  S  S  S  S  S  S  S  S  S  S  S  S  S  E   T  T  S  S  S
|----------------------------------------------------------------------------|
|----------------------------------------------------------------------------|
|-----------------------------------------------14-16-17-17--14h16h17p16p14--|
|-----------------------------14-15-17-14-15-17------------------------------|
|-----------14-15-17-14-15-17------------------------------------------------|
|-13--15-17------------------------------------------------------------------|


   W.
|-------------------------------------------------------------------|
|-------------------------------------------------------------------|
|-------------------------------------------------------------------|
|--2----------------------------------------------------------------|
|--2----------------------------------------------------------------|
|--0----------------------------------------------------------------|
|
|  ~~~
|  Q     S  S  S  S  S  S  S  S  S  S  S  S  S  S  S  S  S  S  S  S
|-------------------------------------------------------------------|
|-------------------------------------------------------------------|
|-16----14h16h17p16p14----14----------------------------------------|
|----------------------17----17p15h17p15p14-------------------------|
|-------------------------------------------17p15p14h15p14----------|
|----------------------------------------------------------17p15p13-|


     H.                         E  E  E  Q.
||--------------------------------------------|
||o-------------------------------------------|
||--------------------------------------------|
||---2--------------------------2--3s=7s=6----|
||o--2--------------------------2-------------|
||---0--------------------------0--1s=5s=4----|
|
|       |------7------|
|    E  T  T T T  T T T Q.   E  E  E  E  E E
||--------------------------------------------|
||o-------------------------------------------|
||--10--9h10p9p7-------------9s10s14-13s10s7--|
||---------------10p9p7-9---------------------|
||o--------------------------7s=8s12-11s=8s5--|
||--------------------------------------------|


   H.                         E  E E E.  E.
|---------------------------------------------||
|--------------------------------------------o||
|---------------------------------------------||
|--2--------------------------2--3s7s6---9----||
|--2--------------------------2--------------o||
|--0--------------------------0--1s5s4---7----||
|
|     |------7------|
|  E  T  T T T  T T T Q.   E  E  E Q.
|---------------------------------------------||
|--------------------------------------------o||
|-10--9h10p9p7-------------9s10s13-7----------||
|--------------10p9p7-9-----------------------||
|--------------------------7s=8s11-5---------o||
|---------------------------------------------||


   4/4
     S S S  S E   E    E    S S E    E    4x
||----------------------------------------||
||o--------------------------------------o||
||----------------------------------------||
||------------2---2-------------2----2----||
||o-----------2---2-------------2----2---o||
||---0-0-0--0-0---0---------0-0-0----0----||
|
|    S S S  S S S S  S S S  S S S  S S S  4x
||----------------------------------------||
||o--------------------------------------o||
||--10-9-7-------------7-9-10-9-7---------||
||---------10-9-7-9-10------------10-9-7--||
||o--------------------------------------o||
||----------------------------------------||


   S S S  S S S S  S S S  S S S  S S S  4x
|---------------------------------------||
|--------------------------------------o||
|-10-9-7-------------7-9-10-9-7---------||
|--------10-9-7-9-10------------10-9-7--||
|--------------------------------------o||
|---------------------------------------||
|
|  S S S  S S S S  S S S  S S S  S S S  4x
|---------------------------------------||
|-10-9-6-------------6-9-10-9-6--------o||
|---------9-8-7-8--9-------------9-8-7--||
|---------------------------------------||
|--------------------------------------o||
|---------------------------------------||


    S S S S S S S S S S S S S S S S   S S S S S S S S S S S S S S S S   4x
||--6h7-0-0-6h7-0-0-6h7-0-0-6h7-0-0-|-5h6-0-0-2h3-0-0-1h2-0-0-0-0-0-0---||
||o---------------------------------|----------------------------------o||
||----------------------------------|-----------------------------------||
||----------------------------------|-----------------------------------||
||o---------------------------------|----------------------------------o||
||----------------------------------|-----------------------------------||


    PM--|   PM      PM--|   PM      PM--|   PM
  E E E E E E E   E E E E E E E   E E E E E E E
|---------------|---------------|---------------|
|---------------|---------------|---------------|
|---------------|---------------|---------------|
|---------------|---------------|---------------|
|-7-------7---7-|-6-------6---6-|-7-------7---7-|
|---8-7-8---8---|---7-5-7---7---|---8-7-8---8---|


    PM--|   PM        PM--|      PM
  E E E E E E E    E  E E  E  E  E  E
|---------------|---------------------|
|---------------|---------------------|
|---------------|---------------------|
|-7-------7---7-|-10---------10----10-|
|---9-7-9---9---|----12-9-12----12----|
|---------------|---------------------|


                                    9/8
     PM--|     PM      PM--|   PM
  E  E E  E E  E E   E E E E E E E   S  S S  S S  S S  S S S S S S S  S S S S
|------------------|---------------|-------------------------------------------|
|------------------|---------------|-------------------------------------------|
|------------------|---------------|-------------------------------------------|
|-9---------9----9-|-8-------8---8-|-9h11p9h11---------------------------------|
|---10-9-10---10---|---9-7-9---9---|-----------9h10p9h10-7h9p7h9-6h7p=6h7p6h7--|
|------------------|---------------|-------------------------------------------|


    PM--|   PM      PM--|   PM       PM--|     PM
  E E E E E E E   E E E E E E E   E  E E  E E  E E
|---------------|---------------|------------------||
|---------------|---------------|------------------||
|---------------|---------------|------------------||
|-7-------7---7-|-5-------5---5-|------------------||
|---9-7-9---9---|---7-6-7---7---|-9---------9----9-||
|---------------|---------------|---11-9-11---11---||


End.

--------------------------------------------------------------------------------

comments
We did not receive enough feedback on this tab! Please rate:
print report bad tab
1 2 3 4 5
I want to post or [tab]
guest
You may want to rate the tab now too:
select rating
Please do not post tabs as comments. Select "correction" instead!