Oops, an error
Loading. Please wait.

Smoked Skulls Tab

415 views 1 this week
no commentswrite comment
1 2 3 4 5
please rate
Autoscroll
+/-
esc
set tempo
stop
Contributor
WARNING: You are trying to view
                                    content from Ultimate-Guitar.com
                                    in an unauthorized application,
                                    which is prohibited.

                                    Please use an official Ultimate
                                    Guitar Tabs application for iPhone,
                                    iPad or Android to access legitimate
                                    chords, guitar, bass, and drum tabs
                                    from Ultimate-Guitar.com database.

                                    Type "ultimate guitar tabs" in Apple
                                    App Store's or Android Market's
                                    search to find the application.
#----------------------------------PLEASE NOTE---------------------------------#
#This file is the author's own work and represents their interpretation of the #
#song. You may only use this file for private study, scholarship, or research. #
#------------------------------------------------------------------------------#

                                 SMOKED SKULLS
                              As recorded by Gorod
                     (From the 2005 Album Neurotripsticks)

Tabbed By Gorod
Gtr I (D G C F A D) - 'Untitled'

 4/4
  Wx2            S E S +S  S E E E E E  4x
|------------||-------------------------||
|------------||o-----------------------o||
|------------||----------------5--------||
|------------||----2-4-(4)---2---4------||
|------------||o-3---------3---------2-o||
|------------||--------------------3----||


   4/4
    Gtr I
    S E S +S  S E E E E E  4x S S S S +S  E S +S  S E E
||-------------------------||------------------------------||--|
||o-----------------------o||-------5-(5)------------------||--|
||----------------5--------||-5-3---------5-3-(3)----------||--|
||----2-4-(4)---2---4------||-----4---------------4-3-2tr3-||--|
||o-3---------3---------2-o||------------------------------||--|
||--------------------3----||------------------------------||--|
|
|   S E S +S  S E E E E E  4x S S S S +S  E S +S  S E E
||-------------------------||------------------------------||--|
||o-----------------------o||-------9-(9)------------------||--|
||----------------8--------||-9-7---------9-7-(7)----------||--|
||----5-7-(7)---5---7------||-----8---------------8-7-6tr7-||--|
||o-6---------6---------5-o||------------------------------||--|
||--------------------6----||------------------------------||--|


    PM--|   PM|   PM--------|   PM----|   PM|   PM--|   PM|   PM--|
    S S S S S S S S S S S S S S S S   S S S S S S S S S S S S S S S S
||----------------------------------|-----------------------------------||
||o---------------------------------|----------------------------------o||
||----------------------------------|-----------------------------------||
||----------------------------------|-----------------------------------||
||o---------------------------------|----------------------------------o||
||--0-0-0---0-0---0-0-0---0-0---0-0-|-0---0-0---0-0-0---0-0---0-0-0-----||


   8/4                                                     4/4
                                                              PM--|     PM|
    S S E S E S S E S E S S E S S S S S S +S  S E S S E     S E E E S E E E E
||-------------------------------------------------------||--------------------|
||o-----------------------------------------------------o||--------------------|
||-------------------------------------------------------||--------------------|
||--------------------------------8-------------------7--||-4s3-3-3-4s3-3-2----|
||o-5-6-7---7-5-6-7---7-5-6-7---7---5-6-7-(7)---7---6---o||-4s3-3-3-4s3-3-2----|
||--------6---------6---------6---------------6---5------||-2s1-1-1-2s1-1-0----|
|
|                                                             PM--|     PM|
|   S S E S E S S E S E S S E S S S S S S +S  S E S S E     S E E E S E E E E
||-------------------------------------------------------||--------------------|
||o-----------------------------------------------------o||--------------------|
||--------------------------------6-------------------5--||--------------------|
||--3-4-5---5-3-4-5---5-3-4-5---5---3-4-5-(5)---5---4----||-4s3-3-3-4s3-3-2----|
||o-------4---------4---------4---------------4---3-----o||-4s3-3-3-4s3-3-2----|
||-------------------------------------------------------||-2s1-1-1-2s1-1-0----|


   3/4
                                 PM|     PM
     S  E  E  E  S  E  E  4x S E E E S E E  4x
||------------------------||----------------||-|
||o----------------------o||---------------o||-|
||--13s12-12-12-13s12-12--||----------------||-|
||------------------------||-3-2-2-2-3-2-2--||-|
||o-11s10-10-10-11s10-10-o||-3-2-2-2-3-2-2-o||-|
||------------------------||-1p0-0-0-1p0-0--||-|
|
|          PM|         PM        PM|     PM
|    S  E  E  E  S  E  E  4x S E E E S E E  4x
||------------------------||----------------||-|
||o----------------------o||---------------o||-|
||------------------------||----------------||-|
||---3--2--2--2--3--2--2--||----------------||-|
||o--3--2--2--2--3--2--2-o||-3s2-2-2-3s2-2-o||-|
||---1p=0--0--0--1p=0--0--||-4s3-3-3-4s3-3--||-|


   4/4
    PM     ~     PM--|        ~  PM--|
    E E  E E +E  E E E   E  E Q  E E E E
||---------------------|-----------------|
||o--------------------|-----------------|
||---------------------|-----------------|
||--2------6-(6)-2-2-2-|------6--2-2-2---|
||o-2---/7-------2-2-2-|---/7----2-2-2---|
||--0------------0-0-0-|---------0-0-0---|
|
|   PM     ~     PM--|        ~  PM--|
|   E E  E E +E  E E E   E  E Q  E E E E
||---------------------|-----------------|
||o--------------------|-----------------|
||---------4-(4)-------|------4----------|
||--2---/6-------2-2-2-|---/6----2-2-2---|
||o-2------------2-2-2-|---------2-2-2---|
||--0------------0-0-0-|---------0-0-0---|


     ~     PM--|        ~  PM--|
   E E +E  E E E E  E   Q  E E E E  E E
|---------------------|------------------||--|
|---------------------|-----------------o||--|
|---------------------|------------------||--|
|----6-(6)-2-2-2------|-6--2-2-2------7--||--|
|-/7-------2-2-2---/7-|----2-2-2---/8---o||--|
|----------0-0-0------|----0-0-0---------||--|
|
|    ~     PM--|        ~  PM--|
|  E E +E  E E E E  E   Q  E E E E  E E
|---------------------|------------------||--|
|---------------------|-----------------o||--|
|----4-(4)------------|-4-------------5--||--|
|-/6-------2-2-2---/6-|----2-2-2---/7----||--|
|----------2-2-2------|----2-2-2--------o||--|
|----------0-0-0------|----0-0-0---------||--|


  E5                      D5                          G5
                           ~~
                                                          |---3----|
   S  S  S  S  S  S  S  S  H      E E E  E  E E E E   H   Q     Q  Q
|------------------------------|--------------------|-------------------|
|------------------------------|--------------------|-------------------|
|-14-13-10-13-10---------------|-10s9-9s13-13s5-5s4-|-4-----------------|
|----------------14-12-10-12---|--------------------|-------------------|
|------------------------------|--8s7-7s11-11s3-3s2-|-2---9b10--9--7----|
|------------------------------|--------------------|-------------------|
|
|                          ~~
|                                                         |---3----|
|  S  S  S  S  S  S  S  S  H      E E E  E  E E E E   H   Q     Q  Q
|------------------------------|--------------------|-------------------|
|------------------------------|-10s9-9s12-12s6-6s5-|-5---5b6---5--3----|
|-10--9--7--9--7---------------|--------------------|-------------------|
|----------------10--9--7--9---|--7s6-6s=9--9s3-3s2-|-2-----------------|
|------------------------------|--------------------|-------------------|
|------------------------------|--------------------|-------------------|


  F5              E5
    ~~~~~~~
    H    H         S  S  S  S  S  S  S  S  S  S  S  S  S  S  S S
|-------------||--------------------------------------------------||
|-------------||o------------------------------------------------o||
|-/10----9----||--------------------------------------------------||
|-------------||--12p=9-----9-14p=9-12p=9-----------9-12p=9----9--||
|-------------||o-------12----------------12-11-12----------12---o||
|-------------||--------------------------------------------------||
|
|   ~~~~~~~
|   H    H         S  S  S  S  S  S  S  S  S  S  S  S  S  S  S S
|-------------||--------------------------------------------------||
|-/10----9----||o-15p12----12-17p12-15p12----------12-15p12----9-o||
|-------------||--------14----------------14-13-14----------14----||
|-------------||--------------------------------------------------||
|-------------||o------------------------------------------------o||
|-------------||--------------------------------------------------||


  G5
   S  S  S  S  S  S  S  S  S  S  S  S  S  S  S  S
|---------------------------------------------------|
|---------------------------------------------------|
|-------------------------------------10p=7---------|
|--9p=7-----7-10p=7--9p=7-----7--9p=7--------9p=7---|
|--------8-----------------8------------------------|
|---------------------------------------------------|
|
|  S  S  S  S  S  S  S  S  S  S  S  S  S  S  S  S
|-------------------------------------17p13---------|
|-17p12----12-18p12-17p12----12-17p12-------15------|
|-------14----------------14-------------------14---|
|---------------------------------------------------|
|---------------------------------------------------|
|---------------------------------------------------|


  G5
   S  S  S  S  S  S  S  S  S  S  S  S  Q
|----------------------------------------------|
|----------------------------------------------|
|----------------------------------------------|
|--9--7-----7-10--7--9--7-----7--9--7--8b9-----|
|--------8-----------------8-------------------|
|----------------------------------------------|
|
|  S  S  S  S  S  S  S  S  S  S  S  S  Q
|----------------------------------------------|
|-17-12----12-18-12-17-12----12-16-12-16b17----|
|-------14----------------14-------------------|
|----------------------------------------------|
|----------------------------------------------|
|----------------------------------------------|


    PM----|   PM|   PM|                     ~~~  PM|   PM|    PM
    S   S S S S S S S  S  S S  S S S  S S   E    S S S S S S  S  S  S  S S  S  E
||----------------------------------------|----------------------------------------||
||o---------------------------------------|---------------------------------------o||
||----------------------------------------|-------------------------7--------------||
||-------------------------------5-7--8-6-|-7--------------------------8-6---------||
||o-----------------------5-7--8----------|---------------------------------8--7--o||
||--0---0-0---0-0---0--0------------------|------0-0---0-0----0--------------------||
|
|   H                 +S  S S  S S S  S S   H                +E     S  S S  S  E
||----------------------------------------|----------------------------------------||
||o---------------------------------------|---------------------------------------o||
||--6b7---------------(6)--------7-9-10-7-|-8b9--------------(8)---10--------------||
||------------------------7-9-10----------|---------------------------11-9---------||
||o---------------------------------------|--------------------------------11-10--o||
||----------------------------------------|----------------------------------------||


  PM--|   PM-----------------------
  S S S S S S S S S S S S S S S S
|---------------------------------|
|---------------------------------|
|---------------------------------|
|---------------------------------|
|---------------------------------|
|-0-0-0---0-0---0-0-0---0-0---0-0-|
|
| PM--|   PM-----------------------
| S S S S S S S S S S S S S S S S
|---------------------------------|
|---------------------------------|
|---------------------------------|
|---------------------------------|
|---------------------------------|
|-0-0-0---0-0---0-0-0---0-0---0-0-|


 -----------------------------|     PM--|     PM--|     PM|
  S S S S S S S S S S S S S S S S   S S E S E S S E S E S S
|---------------------------------|--------------------------|
|---------------------------------|--------------------------|
|---------------------------------|-------5-5-------5-5------|
|---------------------------------|-4-4-4-----4-4-4-----4-4--|
|---------------------------------|--------------------------|
|-0---0-0---0-0-0---0-0---0-0-0---|--------------------------|
|
|---------------------------------------|     PM--|     PM|
| S S S S S S S S S S S S S S S     S S E S E S S E S E S S
|---------------------------------|--------------------------|
|---------------------------------|--------------------------|
|---------------------------------|-------8-8-------8-8------|
|---------------------------------|-7-7-7-----7-7-7-----7-7--|
|---------------------------------|--------------------------|
|-0---0-0---0-0-0---0-0---0-0-0---|--------------------------|


  PM--|   PM--|     PM--|   PM--|
  S S S S S S S S S S S S S S S S
|---------------------------------|
|---------------------------------|
|---------------------------------|
|---------------------------------|
|-------2-----------------3-------|
|-2-3-5---5-3-2-----3-5-6---6-5-3-|
|
| PM--|   PM--|     PM--|   PM--|
| S S S S S S S S S S S S S S S S
|---------------------------------|
|---------------------------------|
|-------4-----------------5-------|
|-4-5-7---7-5-4-----5-7-8---8-7-5-|
|---------------------------------|
|---------------------------------|


    PM--|     PM--|    PM---|      PM-----|    PM--|   PM--|     PM--|
  E S S  S S  S S S E  S  S  S  S  S    S  S E S S S S S S S S S S S S
|------------------------------------|---------------------------------|
|------------------------------------|---------------------------------|
|------------------------------------|---------------------------------|
|-------------------------------3----|---------------------------------|
|----------5-----------3--5--6-----6-|--5--3---------2-----------------|
|---5-6--8----8-6-5------------------|---------2-3-5---5-3-2-----3-5-6-|
|
|   PM--|     PM--|    PM---|      PM-----|    PM--|   PM--|     PM--|
| E S S  S S  S S S E  S  S  S  S  S    S  S E S S S S S S S S S S S S
|------------------------------------|---------------------------------|
|------------------------------------|---------------------------------|
|----------7-------------------10----|---------------4-----------------|
|---7-8-10---10-8-7---10-12-13----13-|-12-10---4-5-7---7-5-4-----5-7-8-|
|------------------------------------|---------------------------------|
|------------------------------------|---------------------------------|


                                 2/4
    PM--|   PM--|     PM--|   PM----|   PM|
  S S S S E S S  S S  S S S E S   S S S S S  S E
|-------------------------------|-----------------|
|-------------------------------|-----------------|
|-------------------------------|-----------------|
|-------------------------------|-----9-----10----|
|-3----------------5----------7-|-7-7---7-7-------|
|---6-5-3---5-6--8----8-6-5-----|-----------------|
|
|   PM--|   PM--|     PM--|   PM----|   PM|
| S S S S E S S  S S  S S S E S   S S S S S  S E
|-------------------------------|-----------------|
|-------------------------------|-----------------|
|-5----------------7------------|-----9-----10----|
|---8-7-5---7-8-10---10-8-7---7-|-7-7---7-7-------|
|-------------------------------|-----------------|
|-------------------------------|-----------------|


    PM--|     PM--|     PM--|     PM--------|   PM  PM  PM  PM        PM--|
    S S  S S  S S S S S S S  S S  S S S   S S S S S S S S S S  S S S  S S S
||--------------------------------------|-------------------------------------||
||o-------------------------------------|------------------------------------o||
||--------------------------------------|-----------------8-------------------||
||---------7-------------------7--------|-----7---9---7-------10-9-7----------||
||o-7-9-10---10-9-7-----7-9-10---10-9-7-|-6-6---6---6---6---6--------10-9-7--o||
||--------------------------------------|-------------------------------------||
|
|   PM--|     PM--|     PM--|     PM--------|   PM  PM  PM  PM        PM--|
|   S S  S S  S S S S S S S  S S  S S S   S S S S S S S S S S  S S S  S S S
||--------------------------------------|-------------------------------------||
||o-------------------------------------|-----------------9------------------o||
||---------7-------------------7--------|-----7---9---7-------10-9-7----------||
||--7-9-10---10-9-7-----7-9-10---10-9-7-|-6-6---6---6---6---6--------10-9-7---||
||o-------------------------------------|------------------------------------o||
||--------------------------------------|-------------------------------------||


   12/8
    PM--|     PM------|     PM----|             PM--|     PM---
    E E  E E  E E E E  E E  E E   E  E E E  E E E E  E E  E E
||------------------------------|-----------------------------|
||o-----------------------------|-----------------------------|
||------------------------------|-----------------------------|
||---------7-------------7------|---10-9-7-------------7------|
||o-7-9-10---10-9-7-9-10---10-9-|-7--------10-9-7-9-10---10-9-|
||------------------------------|-----------------------------|
|
|   PM--|     PM------|     PM----|             PM--|     PM---
|   E E  E E  E E E E  E E  E E   E  E E E  E E E E  E E  E E
||------------------------------|-----------------------------|
||o-----------------------------|-----------------------------|
||---------7-------------7------|---10-9-7-------------7------|
||--7-9-10---10-9-7-9-10---10-9-|-7--------10-9-7-9-10---10-9-|
||o-----------------------------|-----------------------------|
||------------------------------|-----------------------------|


 -----|   PM  PM  PM  PM--------|   PM  PM  PM  PM|
  E E E E E E E E E E E E   E E E E E E E E E E E E
|-------------------------|---------------------------||
|-------------------------|--------------------------o||
|-------------------8-----|-------------------8-------||
|-------7---9---7---------|-------7---9---7-----------||
|-6-6-6---6---6---6---6-6-|-6-6-6---6---6---6---6-6--o||
|-------------------------|---------------------------||
|
|-----|   PM  PM  PM  PM--------|   PM  PM  PM  PM|
| E E E E E E E E E E E E   E E E E E E E E E E E E
|-------------------------|---------------------------||
|-------------------9-----|-------------------9------o||
|-------7---9---7---------|-------7---9---7-----------||
|-6-6-6---6---6---6---6-6-|-6-6-6---6---6---6---6-6---||
|-------------------------|--------------------------o||
|-------------------------|---------------------------||


     PM---|      PM---------|      PM-----|                  PM---|      PM----
     E  E  E  E  E  E  E  E  E  E  E  E    E  E  E  E  E  E  E  E  E  E  E  E
||--------------------------------------|-------------------------------------|
||o-------------------------------------|-------------------------------------|
||-----------10----------------10-------|----13-12-10----------------12-------|
||--10-12-13----13-12-10-12-13----13-12-|-10----------13-12-10-12-13----13-12-|
||o-------------------------------------|-------------------------------------|
||--------------------------------------|-------------------------------------|
|
|    PM---|      PM---------|      PM-----|                  PM---|      PM----
|    E  E  E  E  E  E  E  E  E  E  E  E    E  E  E  E  E  E  E  E  E  E  E  E
||--------------------------------------|-------------------------------------|
||o-------------------------------------|-------------------------------------|
||--------------------------------------|-------------------------------------|
||------------3-----------------3-------|-----6--5--3-----------------3-------|
||o--3--5--6-----6--5--3--5--6-----6--5-|--3-----------6--5--3--5--6-----6--5-|
||--------------------------------------|-------------------------------------|


 -----|    PM   PM   PM   PM--------|    PM   PM   PM   PM|
  E E E  E E  E E  E E  E E E   E E E  E E  E E  E E  E E E
|-----------------------------|---------------------------------||
|----------------------12-----|----------------------12--------o||
|-------10---12---10----------|-------10---12---10--------------||
|-9-9-9----9----9----9----9-9-|-9-9-9----9----9----9----9-9-----||
|-----------------------------|--------------------------------o||
|-----------------------------|---------------------------------||
|
|-----|    PM   PM   PM   PM--------|    PM   PM   PM   PM|
| E E E  E E  E E  E E  E E E   E E E  E E  E E  E E  E E E
|-----------------------------|---------------------------------||
|-----------------------------|--------------------------------o||
|-----------------------4-----|-----------------------4---------||
|--------3----5----3----------|--------3----5----3--------------||
|-2-2-2----2----2----2----2-2-|-2-2-2----2----2----2----2-2----o||
|-----------------------------|---------------------------------||


  PM--|     PM--|     PM--|     PM--------|   PM  PM  PM  PM        PM--|
  S S  S S  S S S S S S S  S S  S S S   S S S S S S S S S S  S S S  S S S
|-------------------------------------|-------------------------------------|
|-------------------------------------|-------------------------------------|
|-------------------------------------|-----------------8-------------------|
|--------7-------------------7--------|-----7---9---7-------10-9-7----------|
|-7-9-10---10-9-7-----7-9-10---10-9-7-|-6-6---6---6---6---6--------10-9-7---|
|-------------------------------------|-------------------------------------|
|
| PM--|     PM--|     PM--|     PM--------|   PM  PM  PM  PM        PM--|
| S S  S S  S S S S S S S  S S  S S S   S S S S S S S S S S  S S S  S S S
|-------------------------------------|-------------------------------------|
|-------------------------------------|-----------------9-------------------|
|--------7-------------------7--------|-----7---9---7-------10-9-7----------|
|-7-9-10---10-9-7-----7-9-10---10-9-7-|-6-6---6---6---6---6--------10-9-7---|
|-------------------------------------|-------------------------------------|
|-------------------------------------|-------------------------------------|


  S S  S S S  S  S  S  S  S  S  S  S  S  S  S
|---------------------------------------------|
|---------------------------------------------|
|-------------------------7--9-10--9--7-----7-|
|----------------7--9-10-----------------9----|
|--------5-7--8-------------------------------|
|-5-7--8--------------------------------------|
|
| S S  S S S  S  S  S  S  S  S  S  S  S  S  S
|------------------------10-12-13-12-10----10-|
|---------------10-12-13----------------12----|
|--------7-9-10-------------------------------|
|-7-9-10--------------------------------------|
|---------------------------------------------|
|---------------------------------------------|


                                  ~
   S S  S  S S S  S S S S S S S S E
|--------------------------------------|
|--9-0--6--9-0-5--6-0-3-5-0-1-3-0------|
|---------------------------------4----|
|--------------------------------------|
|--------------------------------------|
|--------------------------------------|
|
|  S S  S  S S S  S S S S S S S S E
|-12-0-10-12-0-8-10-0-7-8-0-5-7-0------|
|---------------------------------9----|
|--------------------------------------|
|--------------------------------------|
|--------------------------------------|
|--------------------------------------|


   ~~                               PM--|   PM|   PM--|   PM|   PM|
         |--------3---------|
   H     Q     Q            Q       S S S S S S S S S S S S S S S S
|---------------------------------|----------------------------------|
|---------------------------------|----------------------------------|
|--5-----8b10==8pb10r=======8-----|----------------------------------|
|---------------------------------|----------------------------------|
|---------------------------------|----------------------------------|
|---------------------------------|-0-0-0---0-0---0-0-0---0-0---0-0--|
|
|                                   PM--|   PM|   PM--|   PM|   PM|
|  H     Q            Q        Q    S S S S S S S S S S S S S S S S
|-------10b11--------10pb11r==10--|----------------------------------|
|-10------------------------------|----------------------------------|
|---------------------------------|----------------------------------|
|---------------------------------|----------------------------------|
|---------------------------------|----------------------------------|
|---------------------------------|-0-0-0---0-0---0-0-0---0-0---0-0--|


    PM|        PM----|      PM|
    E E  E E E S S S S E    E E  E E E E E E
||------------------------|------------------|
||o-----------------------|------------------|
||------------------------|------------------|
||--2-2------6------------|-2-2------6-------|
||o-2-2-/8-7-5-7-5-4-5-8\-|-2-2-/7-5---7S5-8-|
||--0-0-------------------|-0-0--------------|
|
|   PM|        PM----|      PM|
|   E E  E E E S S S S E    E E  E E E E E E
||------------------------|------------------|
||o-----------------------|------------------|
||------------------------|------------------|
||--2-2------6------------|-2-2--------------|
||o-2-2-/8-7-5-7-5-4-5-8\-|-2-2-/7-5-5-------|
||--0-0-------------------|-0-0--------5-3S6-|


  PM|        PM----|      PM--|   PM|   PM--|   PM|   PM|
  E E  E E E S S S S E    S S S S S S S S S S S S S S S S
|-----------------------|-----------------------------------||
|-----------------------|----------------------------------o||
|-----------------------|-----------------------------------||
|-2-2------6------------|-----------------------------------||
|-2-2-/8-7-5-7-5-4-5-8\-|----------------------------------o||
|-0-0-------------------|-0-0-0---0-0---0-0-0---0-0---0-0---||


    S  S  S S  S  S S  S  S S  S  S S S  S S
||--0-12-13-0-13-16-0-12-13-0-10-12-0-8-10-0-|
||o------------------------------------------|
||-------------------------------------------|
||-------------------------------------------|
||o------------------------------------------|
||-------------------------------------------|
|
|   S  S  S S  S  S S  S  S S  S  S S S  S S
||-------------------------------------------|
||o-0-12-13-0-13-15-0-12-13-0-10-12-0-9-10-0-|
||-------------------------------------------|
||-------------------------------------------|
||o------------------------------------------|
||--0--0--0----0--0----0--0----0--0---0--0---|
    S  S  S S  S  S S  S  S S  S  S S S  S S


  S S S S S S S S S S  S S  S  S S  S
|-7-8-0-5-7-0-7-8-0-8-10-0-10-12-0-12--|
|--------------------------------------|
|--------------------------------------|
|--------------------------------------|
|--------------------------------------|
|--------------------------------------|
|
| S S S S S S S S S S  S S  S  S S  S
|--------------------------------------|
|-6-9-0-5-6-0-6-9-0-9-10-0-10-12-0-12--|
|--------------------------------------|
|--------------------------------------|
|--------------------------------------|
|-0-0---0-0---0-0---0--0----0--0----0--|
  S S S S S S S S S S  S S  S  S S  S


   S S  S  S S  S  S S  S  S S S  S S S S
|-13-0-13-16-0-12-13-0-10-12-0-8-10-0-7-8-|
|-----------------------------------------|
|-----------------------------------------|
|-----------------------------------------|
|-----------------------------------------|
|-----------------------------------------|
|
|  S S  S  S S  S  S S  S  S S S  S S S S
|-----------------------------------------|
|-13-0-13-15-0-12-13-0-10-12-0-9-10-0-6-9-|
|-----------------------------------------|
|-----------------------------------------|
|-----------------------------------------|
|--0----0--0----0--0----0--0---0--0---0-0-|
   S S  S  S S  S  S S  S  S S S  S S S S


  S S S S S S S S  S S  S S  S S  S S
|-0-5-7-0-8-0-9-0-10-0-12-0-13-0-12-0--||
|-------------------------------------o||
|--------------------------------------||
|--------------------------------------||
|-------------------------------------o||
|--------------------------------------||
|
| S S S S S S S S  S S  S S  S S  S S
|--------------------------------------||
|-0-5-6-0-8-0-9-0-10-0-12-0-13-0-12-0-o||
|--------------------------------------||
|--------------------------------------||
|-------------------------------------o||
|---0-0---0---0----0----0----0----0----||
  S S S   E   E    E    E    E    E


    PM  PM------|   PM--------|       PM|
||----------------------|--------------------|
||o---------------------|--------------------|
||----4-----------2-----|-------4h5-4--------|
||--2-------5-4-3-------|-5-4-3---------3-5s4|
||o-2-------5-4-3-------|-5-4-3---------3-3s2|
||--0---0-0-3-2-1---0-0-|-3-2-1-------0-1----|
|   E E S S E E E E S S   E E E S S E E E S S
|
|   PM  PM------|   PM--------|       PM|
||----------------------|--------------------|
||o---5-----------4-----|-------5h6-5--------|
||----------------------|--------------------|
||--2-------5-4-3-------|-5-4-3---------3-5s4|
||o-2-------5-4-3-------|-5-4-3---------3-3s2|
||--0---0-0-3-2-1---0-0-|-3-2-1-------0-1----|
    E E S S E E E E S S   E E E S S E E E S S


  PM  PM------|   PM--------|       PM|
|---------------------|----------------------||
|---------------------|---------------------o||
|---3-----------2-----|-------4h5-4----------||
|-2-------5-4-3-------|-5-4-3---------3-5s4--||
|-2-------5-4-3-------|-5-4-3---------3-3s2-o||
|-0---0-0-3-2-1---0-0-|-3-2-1-------0-1------||
| E E S S E E E E S S   E E E S S E E E S S
|
| PM  PM------|   PM--------|       PM|
|---------------------|----------------------||
|---5-----------4-----|-------5h6-5---------o||
|---------------------|----------------------||
|-2-------5-4-3-------|-5-4-3---------3-5s4--||
|-2-------5-4-3-------|-5-4-3---------3-3s2-o||
|-0---0-0-3-2-1---0-0-|-3-2-1-------0-1------||
  E E S S E E E E S S   E E E S S E E E S S


|-----------------|------------------|-----------------|-----------------|
|-----------------|------------------|-----------------|---------8tr9----|
|-4---------------|-(4)--------------|-7tr8------------|-----------------|
|-4---------------|-(4)--------------|---------8tr9----|-8tr9------------|
|-2---------------|-(2)--------------|-----------------|-----------------|
|-----------------|------------------|-----------------|-----------------|
| W                 +W                 H       H         H       H
|
|-----------------|------------------|-----------------|-----------------|
|-----------------|------------------|-----------------|-----------------|
|-4tr5------------|------------------|-4tr5------------|-----------------|
|---------5tr6----|--2tr3------------|---------5tr6----|-2tr3------------|
|-----------------|----------2tr3----|-----------------|---------2tr3----|
|-----------------|------------------|-----------------|-----------------|
  H       H          H       H         H       H         H       H


  4.
  S E S +S  S E E E Q       S S S S  S S E S S S S  S S E
|-------------------------|-------------------------------|
|-------------------------|-------4--------------5--------|
|---------------5---4tr5--|-5-4-5----7-5-4-6-5-6----8-6-5-|
|---2-4-(4)---2---4-------|-------------------------------|
|-3---------3-------------|-------------------------------|
|-------------------------|-------------------------------|
|
| S E S +S  S E E E Q       S S S S  S S E S S S S  S S E
|-------------------------|-------------------------------|
|-------------------------|-------7--------------8--------|
|---------------8---7tr8--|-8-7-8---10-8-7-9-8-9---11-9-8-|
|---5-7-(7)---5---7-------|-------------------------------|
|-6---------6-------------|-------------------------------|
|-------------------------|-------------------------------|


   S S  S S  S  S E  S  S  S  S  S  S  E
|-----------------------------------------|
|---------6-------------------7-----------|
|--7-6--7----9--7-6--8--7--8----10--8--7--|
|-----------------------------------------|
|-----------------------------------------|
|-----------------------------------------|
|
|  S S  S S  S  S E  S  S  S  S  S  S  E
|-----------------------------------------|
|---------9------------------10-----------|
|-10-9-10---12-10-9-11-10-11----13-11-10--|
|-----------------------------------------|
|-----------------------------------------|
|-----------------------------------------|


  S S S S S S S S S S S S S S S S     +S  S S S S S S S S S S S S S S S  3x
|---------------------------------||-------------------------------------||
|---------------------------------||o-----------------------------------o||
|---------------------------------||-------------------------------------||
|-5-4-5-8-7-5-4---5-4-5-8-7-5-4-5-||--(5)-4-5-8-7-5-4---5-4-5-8-7-5-4-5--||
|---------------------------------||o-----------------------------------o||
|---------------------------------||-------------------------------------||
|
| S S S S S S S S S S S S S S S S     +S  S S S S S S S S S S S S S S S  3x
|---------------------------------||-------------------------------------||
|---------------------------------||o-----------------------------------o||
|---------------------------------||-------------------------------------||
|---------------------------------||-------------------------------------||
|-------5---------------5---------||o---------5---------------5---------o||
|-6-5-6---8-6-5---6-5-6---8-6-5-6-||--(6)-5-6---8-6-5---6-5-6---8-6-5-6--||


  3.
  S S S S S S S S     +S  S S S S S S S S S S S S S S S      Q Q    H
|-----------------||-------------------------------------||--------------*|
|-----------------||o-----------------------------------o||--------------*|
|-----------------||-------------------------------------||--------------*|
|-5-4-5-8-7-5-4---||-------------------------------------||-/5-----------*|
|-----------------||o-----------------------------------o||--------------*|
|---------------3-||--(3)-2-3-6-5-3-2---3-2-3-6-5-3-2-3--||--------------*|
|
| S S S S S S S S     +S  S S S S S S S S S S S S S S S      Q Q    H
|-----------------||-------------------------------------||--------------*|
|-----------------||o-----------------------------------o||--------------*|
|-----------------||-------------------------------------||--------------*|
|-----------------||-------------------------------------||-/5-----------*|
|-------5---------||o-----------------------------------o||--------------*|
|-6-5-6---8-6-5-3-||--(3)-2-3-6-5-3-2---3-2-3-6-5-3-2-3--||--------------*|

End.

comments
We did not receive enough feedback on this tab! Please rate:
print report bad tab
1 2 3 4 5
I want to post or [tab]
guest
You may want to rate the tab now too:
select rating
Please do not post tabs as comments. Select "correction" instead!