Oops, an error
Loading. Please wait.

Nine Tab

466 views 1 this week
no commentswrite comment
1 2 3 4 5
please rate
Autoscroll
+/-
esc
set tempo
stop
Contributor
WARNING: You are trying to view
                                    content from Ultimate-Guitar.com
                                    in an unauthorized application,
                                    which is prohibited.

                                    Please use an official Ultimate
                                    Guitar Tabs application for iPhone,
                                    iPad or Android to access legitimate
                                    chords, guitar, bass, and drum tabs
                                    from Ultimate-Guitar.com database.

                                    Type "ultimate guitar tabs" in Apple
                                    App Store's or Android Market's
                                    search to find the application.
Band: Grand Magus
Song: Nine
Album: Wolf's Return
Tuning: Drop D down a step


D|-----------------------------------------------------------------------------|
A|-----------------------------------------------------------------------------|
F|-----------------------------------------------------------------------------|
C|------------------------------------------------------------------8-7-5ph~---|
G|-------8--7-5-4-5-5~-------8--7-5-4~-------8--7-5-4-5-5~--8-7-4-5------------|
C|--0-0-----------------0-0-------------0-0------------------------------------|


D|----------------------------------------------------------------------------|
A|----------------------------------------------------------------------------|
F|------------------------------------------------------------------------h---|
C|---------------------------------------------------------8----7---5-3--2-3--|
G|-------8--7-5-4-5-5~-------8--7-5-4~-------8--7-5-4-5-5---------------------|
C|--0-0-----------------0-0-------------0-0-----------------------------------|


D|-----------------------------------------------------------------------------|
A|-----------------------------------------------------------------------------|
F|-----------------------------------------------------------------------------|
C|------------------------------------------------------------------8-7-5ph~---|
G|-------8--7-5-4-5-5~-------8--7-5-4~-------8--7-5-4-5-5~--8-7-4-5------------|
C|--0-0-----------------0-0-------------0-0------------------------------------|


D|----------------------|
A|----------------------|
F|----------------------|
C|--8--7--5-3--2--------|
G|----------------------|
C|----------------------|


D|-------------------------------------|
A|--------8------------------8---------|
F|-----7------------------7------------|
C|--8------------------8---------------|
G|-------------------------------------|
C|-------------------------------------|

D|------------------------------------------------------------| x2
A|------------------------------------------------------------|
F|------------------------------------------------------------|
C|------p-------p---0--2--3--0------p-------p---0--2--3~------|
G|--0--1-0--0--1-0--------------0--1-0--0--1-0----------------|
C|------------------------------------------------------------|


D|-----------------------------------------------------|
A|--------8----------8--------------8--------------8---|
F|-----7----------7--------------7--------------7------|
C|--8----------8--------------8--------------8---------|
G|-----------------------------------------------------|
C|-----------------------------------------------------|


D|------------------------------------------------------------| x2
A|------------------------------------------------------------|
F|------------------------------------------------------------|
C|------p-------p---0--2--3--0------p-------p---0--2--3~------|
G|--0--1-0--0--1-0--------------0--1-0--0--1-0----------------|
C|------------------------------------------------------------|


D|----------------------------------------------------------------------------|
A|----------------------------------------------------------------------------|
F|----------------------------------------------------------------------------|
C|--------------------------------------0-0-0-0--2-2-2-2--3-3-3-3--0-0-0-0----|
G|--0-0-0-0--1-1-1-1--0-0-0-0--1-1-1-1----------------------------------------|
C|----------------------------------------------------------------------------|


D|---------------------------------------------------------------------|
A|---------------------------------------------------------------------|
F|---------------------------------------------------------------------|
C|--------------------------------------0-0-0-0--2-2-2-2--3-3-3-3------|
G|--0-0-0-0--1-1-1-1--0-0-0-0--1-1-1-1---------------------------------|
C|---------------------------------------------------------------------|


D|----------------------------------------------------------------------------|
A|----------------------------------------------------------------------------|
F|----------------------------------------------------------------------------|
C|--------------------------------------0-0-0-0--2-2-2-2--3-3-3-3--0-0-0-0----|
G|--0-0-0-0--1-1-1-1--0-0-0-0--1-1-1-1----------------------------------------|
C|----------------------------------------------------------------------------|


D|----------------------------------------|
A|----------------------------------------|
F|----------------------------------------|
C|----------------------------------------|
G|--0-0-0-0--1-1-1-1--0-0-0-0--1-1-1-1----|
C|----------------------------------------|


D|----------------------------|
A|----------------------------|
F|--7---5----3--2----0--------|
C|----------------------------|
G|----------------------------|
C|----------------------------|
 |                            |
 |                            |
D|----------------------------|
A|----------------------------|
F|----------------------------|
C|--8----7---5--3----2--------|
G|----------------------------|
C|----------------------------|


D|-----------------------------------------------------------------------------|
A|-----------------------------------------------------------------------------|
F|-----------------------------------------------------------------------------|
C|------------------------------------------------------------------8-7-5ph~---|
G|-------8--7-5-4-5-5~-------8--7-5-4~-------8--7-5-4-5-5~--8-7-4-5------------|
C|--0-0-----------------0-0-------------0-0------------------------------------|


D|---------------------------------------------------------|
A|---------------------------------------------------------|
F|---------------------------------------------------------|
C|---------------------------------------------------------|
G|-------8--7-5-4-5-5~-------8--7-5-4~-------8--7-5-4-5-5--|
C|--0-0-----------------0-0-------------0-0----------------|



D|----------------------|
A|----------------------|
F|----------------------|
C|--8--7--5-3--2--------|
G|----------------------|
C|----------------------|


D|------------------------------------------------------------------------| 
A|------------------------------------------------------------------------|
F|--5-5-5-5-5-5-5-5-5-5-5-5-5--------5-5-5-5-5-5-5-5-5-5-5-5-5------------|
C|--3-3-3-3-3-3-3-3-3-3-3-3-3-4-4-4--3-3-3-3-3-3-3-3-3-3-3-3-3-4-4-4------|
G|----------------------------2-2-2----------------------------2-2-2------|
C|------------------------------------------------------------------------|
 |                                                                        |
 |                                                                        |
D|------------------------------------------------------------------------|
A|------------------------------------------------------------------------|
F|----------5-------------------------------------------------------------|
C|------6-------3~--------------------------------------------------------|
G|------------------------------------------------------------------------|
C|------------------------------------------------------------------------|


D|------------------------------------------------------------------------| 
A|------------------------------------------------------------------------|
F|--5-5-5-5-5-5-5-5-5-5-5-5-5--------5-5-5-5-5-5-5-5-5-5-5-5-5------------|
C|--3-3-3-3-3-3-3-3-3-3-3-3-3-4-4-4--3-3-3-3-3-3-3-3-3-3-3-3-3-4-4-4------|
G|----------------------------2-2-2----------------------------2-2-2------|
C|------------------------------------------------------------------------|
 |                                                                        |
 |                                                                        |
D|------------------------------------------------------------------------|
A|--------------6~--------------------------------------------------------|
F|----------5-------------------------------------------------------------|
C|------6-----------------------------------------------------------------|
G|------------------------------------------------------------------------|
C|------------------------------------------------------------------------|


D|----------------------------------------------------------------------| x2
A|----------------------------------------------------------------------|
F|--7-7-7-7-7-7-7-7-7-7-7-7-7--------7-7-7-7-7-7-7-7-7-7-7-7------------|
C|--5-5-5-5-5-5-5-5-5-5-5-5-5-6-6-6--5-5-5-5-5-5-5-5-5-5-5-5-6-6-6------|
G|----------------------------4-4-4--------------------------4-4-4------|
C|----------------------------------------------------------------------|
 |                                                                      |
 |                                                                      |
D|----------------------------------------------------------------------|
A|--------------8~------------------------------------------------------|
F|----------7-----------------------------------------------------------|
C|------8---------------------------------------------------------------|
G|----------------------------------------------------------------------|
C|----------------------------------------------------------------------|


D|---------------------------|
A|---------------------------|
F|--6~--------7~--------6----|
C|--5---------5---------5----|
G|---------------------------|
C|---------------------------|


D|------------------------------------------------------------| 
A|------------------------------------------------------------|
F|------p-------p---2--4--5--2------p-------p----2--4--5~-----|
C|--2--3-2--2--3-2--0--2--3--0--2--3-2--2--3-2---0--2--3~-----|
G|--0--1-0--0--1-0--------------0--1-0--0--1-0----------------|
C|------------------------------------------------------------|


D|-----------------------------------------------| 
A|-----------------------------------------------|
F|------p-------p---2--4--5--2------p-------p----|
C|--2--3-2--2--3-2--0--2--3--0--2--3-2--2--3-2---|
C|-----------------------------------------------|


D|-----------------------------------------------------------------------------|
A|-----------------------------------------------------------------------------|
F|-----------------------------------------------------------------------------|
C|------------------------------------------------------------------8-7-5ph~---|
G|-------8--7-5-4-5-5~-------8--7-5-4~-------8--7-5-4-5-5~--8-7-4-5------------|
C|--0-0-----------------0-0-------------0-0------------------------------------|


D|----------------------------|
A|----------------------------|
F|--7---5----3--2----0--------|
C|----------------------------|
G|----------------------------|
C|----------------------0-0---|
 |                            |
 |                            |
D|----------------------------|
A|----------------------------|
F|----------------------------|
C|--8----7---5--3----2--------|
G|----------------------------|
C|----------------------0-0---|


Key:
~ = Virbrato
P = Pull off
ph = Pinch Harmonic
comments
We did not receive enough feedback on this tab! Please rate:
1 2 3 4 5
I want to post or [tab]
guest
You may want to rate the tab now too:
select rating
Please do not post tabs as comments. Select "correction" instead!