Oops, an error
Loading. Please wait.

Milo Minute Tab

128 views 1 this week
no commentswrite comment
1 2 3 4 5
please rate
Autoscroll
+/-
esc
set tempo
stop
Contributor
Difficulty
intermediate
WARNING: You are trying to view
                                    content from Ultimate-Guitar.com
                                    in an unauthorized application,
                                    which is prohibited.

                                    Please use an official Ultimate
                                    Guitar Tabs application for iPhone,
                                    iPad or Android to access legitimate
                                    chords, guitar, bass, and drum tabs
                                    from Ultimate-Guitar.com database.

                                    Type "ultimate guitar tabs" in Apple
                                    App Store's or Android Market's
                                    search to find the application.
-------------------------------------------------------------------------------
                             MILO MINUTE - Grass Widow
-------------------------------------------------------------------------------
Tabbed by: Em
E-mail:

Tuning: Standard

e|---------------------------------------------------------------------------|
B|---------------------------------------------------------------------------|
G|---------------------------7--7-7--7-7-7--7--------------------------------|
D|--7-7----5-5---------------7--7-7--7-7-7--7--7/10-10-----------------------|
A|------7------5--7-7--------5--5-5--5-5-5--5--------------------------------|
E|--------------------8\-----------------------------------------------------|
  (^bass adapted for guitar)(^ guitar comes in here)

e|---------------------------------------------------------------------------|
B|--10-10----8-8-------------------------------------------------------------|
G|--------9------7--9---------2--2-2--2-2-2--2-2-2--2-2-0-0------------------|
D|--------------------10\----------------------------------------------------|
A|---------------------------------------------------------------------------|
E|---------------------------------------------------------------------------|

e|---------------------------------------------------------------------------|
B|---------------------------------------------------------------------------|
G|---------------------------------------------------------------------------|
D|-----7--7-7--7-7-7--9--9-9--9-9-9--5--5-5--5-5-5--4--4-4--4-4-4------------|
A|-----7--7-7--7-7-7--9--9-9--9-9-9--5--5-5--5-5-5--5--5-5--5-5-5------------|
E|-----5--5-5--5-5-5--7--7-7--7-7-7--3--3-3--3-3-3---------------------------|

e|---------------------------------------------------------------------------|
B|---------------------------------------------------------------------------|
G|---------------------------------------------------------------------------|
D|-----7--7-7--7-7-7--9--9-9--9-9-9--5--5-5--5-5-5--4--4-4--4-4-4------------|
A|-----7--7-7--7-7-7--9--9-9--9-9-9--5--5-5--5-5-5--5--5-5--5-5-5------------|
E|-----5--5-5--5-5-5--7--7-7--7-7-7--3--3-3--3-3-3---------------------------|

e|---------------------------------------------------------------------------|
B|---------------------------------------------------------------------------|
G|---------------------------------------------------------------------------|
D|-----7--7-7--7-7-7--5--5-5--5-5-5--12--12-12--12-12-12--4--4-4--4-4-4------|
A|-----7--7-7--7-7-7--5--5-5--5-5-5--12--12-12--12-12-12--5--5-5--5-5-5------|
E|-----5--5-5--5-5-5--3--3-3--3-3-3--10--10-10--10-10-10---------------------|

e|---------------------------------------------------------------------------|
B|-----3--3-3--3-3-3--3--3-3--3-3-3------------------------------------------|
G|-----3--3-3--3-3-3--4--4-4--4-4-4------------------------------------------|
D|---------------------------------------------------------------------------|
A|---------------------------------------------------------------------------|
E|---------------------------------------------------------------------------|

e|---------------------------------------------------------------------------|
B|---------------------------------------------------------------------------|
G|---------------------------------------------------------------------------|
D|-----7--7-7--7-7-7--9--9-9--9-9-9--5--5-5--5-5-5--4--4-4--4-4-4------------|
A|-----7--7-7--7-7-7--9--9-9--9-9-9--5--5-5--5-5-5--5--5-5--5-5-5------------|
E|-----5--5-5--5-5-5--7--7-7--7-7-7--3--3-3--3-3-3---------------------------|

e|---------------------------------------------------------------------------|
B|---------------------------------------------------------------------------|
G|---------------------------------------------------------------------------|
D|-----7--7-7--7-7-7--9--9-9--9-9-9--5--5-5--5-5-5--4--4-4--4-4-4------------|
A|-----7--7-7--7-7-7--9--9-9--9-9-9--5--5-5--5-5-5--5--5-5--5-5-5------------|
E|-----5--5-5--5-5-5--7--7-7--7-7-7--3--3-3--3-3-3---------------------------|

e|---------------------------------------------------------------------------|
B|---------------------------------------------------------------------------|
G|---------------------------------------------------------------------------|
D|----7--7-7--7-7-7--5--5-5--5-5-5--12--12-12--12-12-12--4--4-4--4-4-4-------|
A|----7--7-7--7-7-7--5--5-5--5-5-5--12--12-12--12-12-12--5--5-5--5-5-5-------|
E|----5--5-5--5-5-5--3--3-3--3-3-3--10--10-10--10-10-10----------------------|

e|---------------------------------------------------------------------------|
B|--4--4-4--4-4-4--5--5-5--5-5-5--6--6-6--5--5-5-----------------------------|
G|--4--4-4--4-4-4--4--4-4--4-4-4--4--4-4--4--4-4-----------------------------|
D|------------------------------------------------/7--7-7--7-7-7--7-7\5------|
A|---------------------------------------------------------------------------|
E|---------------------------------------------------------------------------|

e|---------------------------------------------------------------------------|
B|-----------------------------10-10----8-8----------------------------------|
G|-----------------------------------9------7--9-----------------------------|
D|--/7--7-7--7-7-7--7-7/10-10---------------------10\--7--7-7--7-7-7--7-7-7--|
A|---------------------------------------------------------------------------|
E|---------------------------------------------------------------------------|

e|---------------------------------------------------------------------------|
B|---------------------------------------------------------------------------|
G|--7-7-9-9-9/14--14-14--14-14-14--13--13-13--13-13-13--12--12-12--12-12-12--|
D|---------------------------------14--14-14--14-14-14--14--14-14--14-14-14--|
A|---------------------------------------------------------------------------|
E|---------------------------------------------------------------------------|

e|---------------------------------------------------------------------5h7p5-|
B|------------------------------------------------------------/6--6-6--------|
G|--11--11-11--11-11-11--11--11-11--10--10-10--7--7-7--7-7-7-----------------
D|--12--12-12--12-12-12--12--12-12--12--12-12--9--9-9--9-9-9-----------------|
A|---------------------------------------------------------------------------|
E|---------------------------------------------------------------------------|

e|---------------------------------------------------------------------------|
B|--6h7--7--7-7--------------------------------------------------------------|
G|---------------------------------------------------------------------------|
D|-----------------/9--9-9--9-9-9--9/14--12-12--14/16--16-16-----------------|
A|---------------------------------------------------------------------------|
E|---------------------------------------------------------------------------|

e|---------------------------------------------------------------------------|
B|-----------------------------------------12--12--12--11--11-11-------------|
G|-----------------------------------------12--12--12--12--12-12-------------|
D|---------------------------------------------------------------------------|
A|--17--17-17--17-17\----12--12-12--12-12------------------------------------|
E|---------------------------------------------------------------------------|

e|---------------------------------------------------------------------------|
B|--7--7-7--7-7-7--7/11--11-11--11-11-11--11-11-11--11--11-11----------------|
G|--7--7-7--7-7-7--7/10--10-10--10-10-10--10-10-10--10--10-10----------------|
D|---------------------------------------------------------------------------|
A|---------------------------------------------------------------------------|
E|---------------------------------------------------------------------------|

e|---------------------------------------------------------------------------|
B|----------------------------------------------------10-10---8-8------------|
G|----------------------------------------------------------9-----7--9-------|
D|--/7--7-7--7-7-7--7-7\5--/7--7-7--7-7-7--7-7/10-10-------------------10\---|
A|---------------------------------------------------------------------------|
E|---------------------------------------------------------------------------|

e|---------------------------------------------------------------------------|
B|---------------------------------------------------------------------------|
G|--2--2-2--2-2-2--2-2-2--0-0------2--2-2--2-2-2--2-2-2--2--2-2--------------|
D|----------------------------0-0--2--2-2--2-2-2--2-2-2--2--2-2--------------|
A|---------------------------------2--2-2--2-2-2--2-2-2--2--2-2--------------|
E|---------------------------------------------------------------------------|

e|---------------------------------------------------------------------------|
B|---------------------------------------------------------------------------|
G|--2--2-2--2-2-2--3--3-3--3-3-3---------------------------------------------|
D|--2--2-2--2-2-2--3--3-3--3-3-3---------------------------------------------|
A|--2--2-2--2-2-2--3--3-3--3-3-3---------------------------------------------|
E|---------------------------------------------------------------------------|

e|---------------------------------------------------------------------------|
B|---------------------------------------------------------------------------|
G|---------------------------------------------------------------------------|
D|-----7--7-7--7-7-7--9--9-9--9-9-9--5--5-5--5-5-5--4--4-4--4-4-4------------|
A|-----7--7-7--7-7-7--9--9-9--9-9-9--5--5-5--5-5-5--5--5-5--5-5-5------------|
E|-----5--5-5--5-5-5--7--7-7--7-7-7--3--3-3--3-3-3---------------------------|

e|---------------------------------------------------------------------------|
B|---------------------------------------------------------------------------|
G|---------------------------------------------------------------------------|
D|-----7--7-7--7-7-7--9--9-9--9-9-9--5--5-5--5-5-5--4--4-4--4-4-4------------|
A|-----7--7-7--7-7-7--9--9-9--9-9-9--5--5-5--5-5-5--5--5-5--5-5-5------------|
E|-----5--5-5--5-5-5--7--7-7--7-7-7--3--3-3--3-3-3---------------------------|

e|---------------------------------------------------------------------------|
B|---------------------------------------------------------------------------|
G|---------------------------------------------------------------------------|
D|-----7--7-7--7-7-7--5--5-5--5-5-5--12--12-12--12-12-12--4--4-4--4-4-4------|
A|-----7--7-7--7-7-7--5--5-5--5-5-5--12--12-12--12-12-12--5--5-5--5-5-5------|
E|-----5--5-5--5-5-5--3--3-3--3-3-3--10--10-10--10-10-10---------------------|

e|---------------------------------------------------------------------------|
B|---------------------------------------------------------------------------|
G|---------------------------------------------------------------------------|
D|--5--5-5--5-5--4--4-4--4-4--\--2--2-2--2-2---------------------------------|
A|--5--5-5--5-5--5--5-5--5-5--\--3--3-3--3-3--/--5---------------------------|
E|-----------------------------------------------3---------------------------|

The number of times a chord or note is written might be slightly off, listen to the recording.
************************************

| /   slide up
| \   slide down
| h   hammer-on
| p   pull-off
| ~   vibrato
| +   harmonic
| x   Mute note
| b   Bend
| pb  Pre-bend
| br  Bend release
| pbr Pre-bend release
| brb Bend release bend

************************************
comments
We did not receive enough feedback on this tab! Please rate:
print report bad tab
1 2 3 4 5
I want to post or [tab]
guest
You may want to rate the tab now too:
select rating
Please do not post tabs as comments. Select "correction" instead!