Oops, an error
Loading. Please wait.

Truckin Tab

ver2
ver2

Whole song

Interactive

More versions @911Tabs.com
28,150 views 33 this week
1 commentread comment
1 2 3 4 5
accurate
x 4
Autoscroll
+/-
esc
set tempo
stop
Contributor
Hey! There's an official Ultimate Guitar app which is ideal
for learning songs when you're away from computer. Get the app
WARNING: You are trying to view
                                    content from Ultimate-Guitar.com
                                    in an unauthorized application,
                                    which is prohibited.

                                    Please use an official Ultimate
                                    Guitar Tabs application for iPhone,
                                    iPad or Android to access legitimate
                                    chords, guitar, bass, and drum tabs
                                    from Ultimate-Guitar.com database.

                                    Type "ultimate guitar tabs" in Apple
                                    App Store's or Android Market's
                                    search to find the application.
#----------------------------------PLEASE NOTE---------------------------------#
#This file is the author's own work and represents their interpretation of the #
#song. You may only use this file for private study, scholarship, or research. #
#------------------------------------------------------------------------------#

TRUCKIN'
As recorded by The Grateful Dead
(From the 1971 Album AMERICAN BEAUTY)

Transcribed by WagimawR@yahoo.com
	

Words and Music by Robert Hunter, Jerry Garcia, Phil Lesh and Bob Weir
Arranged by Dale Turner

E
0 2 2 1 0 0
	
E7
0 2 0 1 0 0
	
A
x 0 2 2 2 x
	
G
3 2 0 0 3 3

D
x x 0 2 3 2
	
Bm
x 2 4 4 3 x
	
F#
2 4 4 3 2 2
	
E5
0 2 x x x x

E6
0 4 x x x x

Gtr I (E A D G B E) - 'acous. [rhythm]'
Gtr II (E A D G B E) - 'acous. [rhythm]'
Gtr III (E A D G B E) - 'slightly dirty elec. [rhythm]'
Gtr IV (E A D G B E) - 'elec. w/dist. [lead]'
Gtr V (E A D G B E) - 'elec. w/dist. [fill]'

 Intro (0:00)
  Moderate Shuffle Q.=126
  N.C.
 12/8
  Gtr I
  a E  E E E E E   E  E E E  E E   a E E E E E E E E E E E E
|--------------------------------|---------------------------|
|------3---3---3------3---3----3-|-----3---3---3---3---3---3-|
|-3s4----4---4-----4----4----4---|-3s4---4---4---4---4---4---|
|--------------------------------|---------------------------|
|--------------------------------|---------------------------|
|--------------------------------|---------------------------|
|
| Gtr II
|   H.             Q.     Q.         E E E E E E E E E E E E
|--------------------------------|---------------------------|
|--------------------------------|---------------------------|
|--------------------------------|---------------------------|
|-------------------------0------|---------------------------|
|--------------------------------|---0h1h2-2-2-2-2-2-1-0-----|
|------------------0-------------|-----------------------3-4-|
|
| Gtr III
|   H.           a Q    E Q    E   a E E E E E E E E E E E E
|--------------------------------|---------------------------|
|--------------------------------|---------------------------|
|--------------------------------|---------------------------|
|--------------------------------|---------------------------|
|----------------6s7----7-7----7-|-6s7-7-7-7-7-7-5-----------|
|--------------------------------|-----------------7-6-5-3-0-|


  E5    E6       E5       E6    E5
  Gtr III
  Q   E  Q     E  Q     E  Q     E
  |   |  |     |  |     |  |     |
  /   /  /     /  /     /  /     /

  Gtr IV
  Q.     Q.       Q.       E  E  E
|-------------------------------------|
|-------15b17----15b17----12----------|
|----------------------------14-12b13-|
|-------------------------------------|
|-------------------------------------|
|-------------------------------------|
|
| Gtrs I, II
| Q   E  Q     E  Q     E  Q     E
|-------------------------------------|
|-------------------------------------|
|-------------------------------------|
|-------------------------------------|
|-2---2--4-----2--2-----2--4-----2----|
|-0---0--0-----0--0-----0--0-----0----|


  E5     E6          E5           E6
   Q   E  Q        E  Q        E   Q     E
   |   |  |        |  |        |   |     |
   /   /  /        /  /        /   /     /

   Q.     Q        E  Q       +E   E  E  E
|------------------------------------------|
|------------------------------------------|
|--------12b12.5--14-12b13===(12)----------|
|-14------------------------------14-12----|
|---------------------------------------14-|
|------------------------------------------|
|
|  Q   E  Q        E  Q        E   Q     E
|------------------------------------------|
|------------------------------------------|
|------------------------------------------|
|------------------------------------------|
|--2---2--4--------2--2--------2---4-----2-|
|--0---0--0--------0--0--------0---0-----0-|


  E5      E6       E5       E6
   Q    E  Q     E  Q     E  Q           E
   |    |  |     |  |     |  |           |
   /    /  /     /  /     /  /           /

  Gtr IV
   E  E E  Q     E  Q.       E     E     S     S
|------------------------------------------------|
|------------------12-------12-------------------|
|---------14b16----14b16----------14b16-14p===12-|
|-12h14------------------------------------------|
|------------------------------------------------|
|------------------------------------------------|
|
| Gtrs I, II
|  Q    E  Q     E  Q     E  Q           E
|------------------------------------------------|
|------------------------------------------------|
|------------------------------------------------|
|------------------------------------------------|
|--2----2--4-----2--2-----2--4-----------2-------|
|--0----0--0-----0--0-----0--0-----------0-------|
|
| Gtr V
|  ~~~~~~~~~~~~~~~~~~~~~~
|  H.              +Q.       E    +E     E
|------------------------------------------------|
|------------------------------------------------|
|--9---------------(9)---------------------------|
|----------------------------7pb9r(7)----5pb6----|
|------------------------------------------------|
|------------------------------------------------|


  E
  W
  E  E  E  E   E  E     E   E     E  E  E  E
|--------------------------------------------||
|--------------------------------------------||
|---14----12--14-12b13-----12b13-------------||
|------14--------------14--------14-12-------||
|--------------------------------------14-13-||
|--------------------------------------------||
|
| Q     E  Q      E     Q         E  Q     E
|--------------------------------------------||
|--------------------------------------------||
|--------------------------------------------||
|--------------------------------------------||
|-2-----2--4------2-----2---------2--4-----2-||
|-0-----0--0------0-----0---------0--0-----0-||
|
| Q     E  Q.           H.
|--------------------------------------------||
|--------------------------------------------||
|--------------------------------------------||
|--------------------------------------------||
|-7------------------------------------------||
|--------------------------------------------||


 1st Chorus (0:12)
     E
  Gtr IV
   a  Q.     +Q    +E   H.
|----------------------------------|
|----------------------------------|
|----------------------------------|
|----------------------------------|
|-12s11-----(11)--(11)\------------|
|----------------------------------|
|
| Gtrs I, II
|     Q   E   Q     E   Q   E Q  E
|-------------0-----0---0---0------|
|-------------0-----0---0---0------|
|-------------1-----1---1---1----1-|
|-----2---2---2-----2---2---2----2-|
|-----2---2---2-----2---2---2-4--2-|
|-----0---0---0-----0---0---0-0--0-|


                             A
  H.         Q  E  E  E  E    Q.     +Q    E H.
|--------------------12-14-|-12-----(12)\-----------------|
|---------------5S14-------|------------------------------|
|--------------------------|------------------------------|
|--------------------------|------------------------------|
|--------------------------|------------------------------|
|--------------------------|------------------------------|
|
| Q   E Q  E Q  E  Q     E    Q   E   Q.     Q   E Q  E
|-------0--0-0--0----------|----------5-------------------|
|-------0--0-0--0----------|----------5------------7--5---|
|-1---1-1--1-1--1----------|----------6------6---6-7--5h==|
|-2---2-2--2-2--2--2-----x-|--7---7---7------7---7-7------|
|-2---2-2--2-2--2--2-----x-|--7---7---7------7---7--------|
|-0---0-0--0-0--0--0-----x-|--5---5---5------5---5--------|


                               B
  H.          Q.     Q.        W.
|-------------------21b23----|----------------------|
|----------------------------|----------------------|
|----------------------------|----------------------|
|----------------------------|----------------------|
|----------------------------|----------------------|
|----------------------------|----------------------|
|
| Q   E Q  E +Q   E  Q     E   Q   E Q.   Q  E Q  E
|-----5-5--5-(5)--5----------|-------7--------------|
|-----5-5--5-(5)--5----------|-------7---------9--7-|
|-6---6-6--6-(6)--6----------|-------8---------9--7h|
|-------7--7-(7)--7--x-----x-|-9---9-9----9--9-9----|
|-------7--7-(7)--7--x-----x-|-9---9-9----9--9------|
|-------5--5-(5)--5--x-----x-|-7---7-7----7--7------|


  H.         Q.     Q       +E
|------------------19pb21r=(19)-|
|-------------------------------|
|-------------------------------|
|-------------------------------|
|-------------------------------|
|-------------------------------|
|
| Q.   Q  E +Q   E  Q.
|------7--7-(7)-----------------|
|------7--7-(7)--9--------------|
|-8----8--8-(8)--9--------------|
|------9--9-(9)--9--------------|
|------9--9-(9)-----------------|
|------7--7-(7)-----------------|


  A                                                 E
   ~~~~~~~~~~~~~~~
   H.         +Q.    Q.      W.                     W.
|-17---------(17)----------|----------------------|-----------------------|
|--------------------------|----------------------|-----------------------|
|--------------------------|----------------------|-----------------------|
|--------------------------|----------------------|-----------------------|
|--------------------------|----------------------|-----------------------|
|--------------------------|----------------------|-----------------------|
|
|  Q.   Q.     Q   E Q   E   Q   E Q.   Q  E Q  E   Q   E Q  E Q  E E E E
|--5----5------5-----------|-5---5-5----5---------|---------------0-----0-|
|--5----5------5---7-------|-5---5-5----5--7------|---------------0-----0-|
|--6----6------6---7-------|-6---6-6----6--7----1-|-1---1----1-1--1-0h1---|
|--7----7------7---7-------|-7---7-7----7--7----2-|-2---2----2-2----------|
|--7----7------7---x-----7-|-7---7-7----7--x----2-|-2---2-4--2-2----------|
|--5----5------5---5-5---5-|-5---5-5----5--5-0--0-|-0---0-0--0-0----------|


  Gtrs I, II
  Q  E Q   E Q  E E E E   Q  E Q   E Q  E E E E   Q  E Q   E Q  E Q   E
|---------------------0-|---------------------0-|-----------------------||
|---------------------0-|---------------------0-|-----------------------||
|-1--1-----1-1--1-0h1---|-1--1-----1-1--1-0h1---|-1--1-1---1-1--1-------||
|-2--2-----0-0--0-------|-2--2-----0-0--0-------|-2--2-2---2-2--2-------||
|-2--2-4---2-2--2-------|-2--2-4---2-2--2-------|-2--2-2---2-2--2-2---2-||
|-0--0-0---0-0--0-------|-0--0-0---0-0--0-------|-0--0-0---0-0--0-0---0-||
|
| Gtr III
|                         PM-|                    PM-|
| Q  E E E E Q  E E E E   Q  E E E E Q  E E E E   Q  E E E E Q  E E E E
|-----------------------|-----------------------|-----------------------||
|-----------------------|-----------------------|-----------------------||
|-----------------------|-----------------------|-----------------------||
|----2-------2--2-----2-|------------2--2-------|------------2--2-------||
|----2------------5p4-2-|-----------------5p4p2-|-----------------5p4p2-||
|------0h3h4------------|-0--0-0h3h4------------|-0--0-0h3h4------------||


   1st Verse (0:35)
                           1.,2.,3.
    E
    Q  E Q   E Q  E Q   E   Q  E Q   E Q  E Q   E  3x
||------------------------|------------------------||
||o-----------------------|-----------------------o||
||--1--1-1---1-1--1-1---1-|-1--1-1---1-1--1-1------||
||--2--2-x---0-0--0-x---0-|-0--0-x---0-0--0-x------||
||o-2--2-4---2-2--2-4---2-|-2--2-4---2-2--2-4---2-o||
||--0--0-0---0-0--0-0---0-|-0--0-0---0-0--0-0---0--||
|
|   PM-|                    PM-|
|   Q  E E E E Q  E E E E   Q  E E E E Q  E E E E  3x
||------------------------|------------------------||
||o-----------------------|-----------------------o||
||------------------------|------------------------||
||-------------2--2-------|------------2--2--------||
||o-----------------5p4p2-|-----------------5p4p2-o||
||--0--0-0h3h4------------|-0--0-0h3h4-------------||


 4.
   Q  E  Q   E  Q  E  Q   E
|----------------------------||
|----------------------------||
|----------------------------||
|-/9----11-----12----11------||
|-/7-----7------7-----7------||
|--0--0--0---0--0--0--0---0--||
|
|  PM-|
|  Q  E  E E E  Q  E  E E E
|----------------------------||
|----------------------------||
|----------------------------||
|---------------2--2---------||
|---------------------5p4p2--||
|--0--0--0h3h4---------------||


 Choruses 3+4 (0:51, 2:38)
  $
  E                                            A
  Q  E Q  E Q  E Q  E   Q  E Q   E Q  E Q  E   Q  E Q.     Q  E Q   E
|------0--0-0--0------|------0---0-0--0------|------5------------------|
|------0--0-0--0------|------0---0-0--0------|------5-----------7---5--|
|------1--1-1--1----1-|-1--1-1---1-1--1------|------6------6--6-7---5h=|
|-2--2-2--2-2--2----2-|-2--2-2---2-2--2-2--x-|-7--7-7------7--7-7------|
|-2--2-2--2-2--2-4--2-|-2--2-2---2-2--2-2--x-|-7--7-7------7--7--------|
|-0--0-0--0-0--0-0--0-|-0--0-0---0-0--0-0--x-|-5--5-5------5--5--------|
|
| PM-----------------------|       PM---|         PM----------------|
| Q  E Q  E Q  E Q  E   Q  E E E E Q  E Q.     Q  E E  E E Q  E E E E
|---------------------|----------------------|-------------------------|
|---------------------|----------------------|-------------------------|
|---------------------|----------------------|-------------------------|
|---------------------|----------------------|-------------------------|
|-2--2-4--2-2--2-4--2-|-2--2-2h4p2-2--2------|-7--7-9--9---7--7-9-9-6s=|
|-0--0-0--0-0--0-0--0-|-0--0-0-----0--0-0S===|=5--5-5----5-5--5-5---4s=|


                           B
  Q  E Q   E +Q   E Q  E   Q  E  Q.      Q  E  Q  E
|----5-5---5-(5)--5------|-------7------------------|
|----5-5---5-(5)--5------|-------7-------------9--7-|
|-6--6-6---6-(6)--6------|-------8-------------9--7h|
|------7---7-(7)--7-x--x-|-9--9--9-------9--9--9----|
|------7---7-(7)--7-x--x-|-9--9--9-------9--9-------|
|------5---5-(5)--5-x--x-|-7--7--7-------7--7-------|
|
| Q  E E E E  Q   E Q  E   Q  E  E   E E Q  E  Q  E
|------------------------|--------------------------|
|------------------------|--------------------------|
|------------------------|--------------------------|
|------------------------|--------------------------|
|-7--7-9-9-7--7---7-7--7s|=9--9-11--11-9-9--9-11--8s|
|-5--5-5---5--5---5-5--5s|=7--7--7-----7-7--7--7--6s|


  Q.     Q    E +Q   E Q.
|--------7----7-(7)----------|
|--------7----7-(7)--9-------|
|-8------8----8-(8)--9-------|
|--------9----9-(9)--9-------|
|--------9----9-(9)----------|
|--------7----7-(7)----------|
|
| Q   E  E  E E  Q   E Q  E
|----------------------------|
|----------------------------|
|----------------------------|
|----------------------------|
|-9---9-11-11-9--9---9-9S=6s=|
|-7---7--7----7--7---7-7S=4s=|


                                          To Coda
  A                                                E
  Q.    Q.    Q  E Q   E   Q  E Q.    Q  E Q   E   Q  E Q  E Q  E E E E
|-5-----5-----5----------|-5--5-5-----5----------|--------------0-----0-|
|-5-----5-----5--7-------|-5--5-5-----5--7-------|--------------0-----0-|
|-6-----6-----6--7-------|-6--6-6-----6--7-----1-|-1--1----1-1--1-0h1---|
|-7-----7-----7--7-------|-7--7-7-----7--7-----2-|-2--2----2-2----------|
|-7-----7-----7--x-----7-|-7--7-7-----7--x-----2-|-2--2-4--2-2----------|
|-5-----5-----5--5-5---5-|-5--5-5-----5--5-0---0-|-0--0-0--0-0----------|
|
|     PM---------|     PM----------------|         PM-|
| Q   E Q   E Q  E E E E   Q  E Q   E Q  E E E E   Q  E Q  E Q  E E E E
|------------------------|-----------------------|----------------------|
|------------------------|-----------------------|----------------------|
|------------------------|-----------------------|----------------------|
|------------------------|-----------------------|--------------------2-|
|-7---7-9---7-7--7-7h9-7-|-7--7-9---7-7--7-----7-|------4----2----------|
|-5---5-5---5-5--5-5---5-|-5--5-5---5-5--5-7h9---|-0--0----0----0-3h4---|


  Q  E Q  E Q  E E E E   Q  E Q  E Q  E E E E   Q  E Q  E Q  E Q   E
|--------------------0-|--------------------0-|----------------------||
|--------------------0-|--------------------0-|----------------------||
|-1--1----1-1--1-0h1---|-1--1----1-1--1-0h1---|-1--1-1--1-1--1-------||
|-2--2----0-0--0-------|-2--2----0-0--0-------|-2--2-2--2-2--2-------||
|-2--2-4--2-2--2-------|-2--2-4--2-2--2-------|-2--2-2--2-2--2-2---2-||
|-0--0-0--0-0--0-------|-0--0-0--0-0--0-------|-0--0-0--0-0--0-0---0-||
|
| PM-|                   PM-|    PM---|         PM-|    PM---|
| Q  E Q  E Q  E E E E   Q  E Q  E Q  E E E E   Q  E Q  E Q  E E E E
|----------------------|----------------------|----------------------||
|----------------------|----------------------|----------------------||
|----------------------|----------------------|----------------------||
|--------------------2-|--------------------2-|--------------------2-||
|------4----2----------|------4----2----------|------4----2----------||
|-0--0----0----0-3h4---|-0--0----0----0-3h4---|-0--0----0----0-3h4---||


   2nd Verse (1:14)
                         1.,2.,3.                  4.
    E7
    Gtrs I, II
    Q  E Q  E Q  E Q  E   Q  E Q  E Q  E Q    E  3x  Q  E  Q  E  Q   E  Q  E
||----------------------|------------------------||---------------------------||
||o---------------------|-----------------------o||---------------------------||
||--1--1----1-1--1----1-|-1--1----1-1------------||---------------------------||
||--0--0----0-0--0----0-|-0--0----0-0---------2--||-/9--9-11----12--12-11--0--||
||o-2--2-4--2-2--2-4--2-|-2--2-4--2-2-----------o||-/7--7--7-----7---7--7--0--||
||--0--0-0--0-0--0-0--0-|-0--0-0--0-0--0-3b4-----||--0--0--0--0--0---0--0--0--||


 3rd Chorus (1:29)
  E
  Gtrs I, II
  Q   E Q  E Q  E Q  E   Q   E Q  E Q   E Q  E
|-------0--0-0--0------|-------0--0-0---0------|
|-------0--0-0--0------|-------0--0-0---0------|
|-------1--1-1--1----1-|-1---1-1--1-1---1------|
|-2---2-2--2-2--2----2-|-2---2-2--2-2---2-2--x-|
|-2---2-2--2-2--2-4--2-|-2---2-2--2-2---2-2--x-|
|-0---0-0--0-0--0-0--0-|-0---0-0--0-0---0-0--x-|
|
| Gtr III
| W.                     H.         Q.    Q  E
|----------------------|------------------2----|
|----------------------|------------------2--7-|
|----------------------|------------------2----|
|----------------------|-----------------------|
|----------------------|-----------------------|
|----------------------|-----------------------|


  A
  Q  E Q.     Q  E Q  E   Q  E Q   E +Q   E Q   E
|------5----------------|----5-5---5-(5)--5--------|
|------5-----------7--5-|----5-5---5-(5)--5--------|
|------6------6--6-7--5h|=6--6-6---6-(6)--6--------|
|-7--7-7------7--7-7----|------7---7-(7)--7-x---x--|
|-7--7-7------7--7------|------7---7-(7)--7-x---x--|
|-5--5-5------5--5------|------5---5-(5)--5-x---x--|
|
| PM---------------|         PM---------------|
| Q  E E  E E Q  E Q  E   Q  E E E E  Q   E E E E
|-----------------------|--------------------------|
|-----------------------|--------------------------|
|-----------------------|--------------------------|
|-----------------------|--------------------------|
|-7--7-9--9-7-7--7-9--6s|=7--7-9-9-7--7---7-7-7-8s=|
|-5--5-5----5-5--5-5--4s|=5--5-0---5--5---5-5---6s=|


  B
  Q  E  Q.    Q  E Q    E   Q.     Q  E +Q   E Q.
|-------7-----------------|--------7--7-(7)-----------|
|-------7----------9----7-|--------7--7-(7)--9--------|
|-------8----------9----7h|=8------8--8-(8)--9--------|
|-9--9--9-----9--9-9------|--------9--9-(9)--9--------|
|-9--9--9-----9--9--------|--------9--9-(9)-----------|
|-7--7--7-----7--7--------|--------7--7-(7)-----------|
|
|    PM----------|          PM---------------|
| Q  E  Q   E Q  E E  E E   Q   E  Q  E  Q   E E  E E
|-------------------------|---------------------------|
|-------------------------|---------------------------|
|-------------------------|---------------------------|
|-------------------------|---------------------------|
|-9--9-11---9-9--9------9-|-9---9-11--9--9---9-9----9-|
|-7--7--7---7-7--7-7h11---|-7---7--7--7--7---7-7h11---|


  A
  Q.    Q.     Q   E Q   E   Q  E Q.     Q  E Q   E
|-5-----5------5-----------|-5--5-5------5----------|
|-5-----5------5---7-------|-5--5-5------5--7-------|
|-6-----6------6---7-------|-6--6-6------6--7-----1-|
|-7-----7------7---7-------|-7--7-7------7--7-----2-|
|-7-----7------7---x-----7-|-7--7-7------7--x-----2-|
|-5-----5------5---5-5---5-|-5--5-5------5--5-0---0-|
|
| PM--------|                PM-------------|
| Q   E Q   E  E E E E E E   Q  E Q   E  Q  E E E E
|--------------------------|------------------------|
|--------------------------|------------------------|
|--------------------------|------------------------|
|--------------------------|------------------------|
|-7---7-9---7-10s9p7-----7-|-7--7-9---7-10--9-----7-|
|-5---5-5---5--5-----5h9---|-5--5-5---5--5--5-5h9---|


  E
  Gtr IV
  Q   E  Q.        Q       +E    Q        +E      Q.       Q.        a      +E   E  E  Q    E
|-------14b16-----14b16===(14)r-14b16====(14)r-|-14b16----14b16-----14pb16r(14)-12----12h==14-|
|----12----------------------------------------|-----------------------------------14---------|
|----------------------------------------------|----------------------------------------------|
|----------------------------------------------|----------------------------------------------|
|----------------------------------------------|----------------------------------------------|
|----------------------------------------------|----------------------------------------------|
|
| Gtrs I, II
| Q   E  Q      E  Q        E    E     E   E      Q     E  Q      E          Q      E  E E  E
|---------------------------0--------------0---|--------------------------------------------0-|
|---------------------------0--------------0---|--------------------------------------------0-|
|-1---1---------1--1--------1----0h====1-------|--1-----1---------1----------1------1--0h1----|
|-2---2---------2--2---------------------------|--2-----2---------0----------0------0---------|
|-2---2--4------2--2---------------------------|--2-----2--4------2----------2------2---------|
|-0---0--0------0--0---------------------------|--0-----0--0------0----------0------0---------|
|
| Gtr III
| PM-|                                            PM----|                    PM----|
| Q   E  E    E E  Q        E    E     E   E      Q     E  E    E E          Q      E  E E  E
|----------------------------------------------|----------------------------------------------|
|----------------------------------------------|----------------------------------------------|
|----------------------------------------------|----------------------------------------------|
|------------------------------------------2---|--------------------------------------------2-|
|--------2h===4p2------------------------------|-----------2h===4p2---------------------------|
|-0---0------------0--------0----3h====4-------|--0-----0--------------------0------0--3h4----|


   Q       +E    Q        +E    a      +E   E  E  E  E  E
|-14b16===(14)r-14b16====(14)r-14pb16r(14)-12----12-12-12-|
|---------------------------------------------14----------|
|---------------------------------------------------------|
|---------------------------------------------------------|
|---------------------------------------------------------|
|---------------------------------------------------------|
|
|  Q        E    Q         E            Q      E  E  E  E
|-------------------------------------------------------0-|
|-------------------------------------------------------0-|
|--1--------1--------------1------------1------1--0h=1----|
|--2--------2--------------0------------0------0----------|
|--2--------2----4---------2------------2------2----------|
|--0--------0----0---------0------------0------0----------|
|
|  PM-----|                             PM
|  Q        E    E     E   E            Q      E  E  E  E
|---------------------------------------------------------|
|---------------------------------------------------------|
|---------------------------------------------------------|
|-------------------------------------------------------2-|
|----------------2h====4p==2------------------------------|
|--0--------0---------------------------0------0--3h=4----|


                                      Bridge (1:52, 3:53)
                                    $$
                                       A
   Q.    Q.    Q.    E  E    +E        W.
|-12\-------------------------------||----------------------|
|-----------------------------------||----------------------|
|-----------------------------------||----------------------|
|-----------------------------------||----------------------|
|-----------------------3b4==(3)r---||----------------------|
|-----------------------------------||-5--------------------|
|
|  Q   E Q   E Q.    Q.                Q.   Q  E Q  E Q.
|--0---0-----x----------------------||----------------------|
|--0---0-----x----------------------||-2----2--2-2--2-2-----|
|--1---1-----x----------------------||-2----2--2-2--2-2-----|
|--2---2-----x----------------------||-2----2--2-2--2-2-----|
|--2---2----------------------------||-0----0--0-0--0-0-----|
|--0---0-0-----2-----4--------------||----------------------|
|
|                                      PM-----------------|
|  Q   E Q   E E E E Q        E        Q.   Q  E Q  E Q   E
|-----------------------------------||----------------------|
|-----------------------------------||----------------------|
|-----------------------------------||----------------------|
|------------0----------------------||-2----4--2-2--2-4---2-|
|------1s2-----2p0---0--------------||-0----0--0-0--0-0---0-|
|--0---------------3----------3b3.5-||----------------------|


                               N.C.(G)
 6/8             12/8
  +Q.    +Q   E   a H.         E  E E  Q   E
|---------------|----------------------------|
|---------------|----------------------------|
|---------------|----------------------------|
|---------------|----------------------------|
|---------------|----------------------------|
|-(5)----(5)--0-|-3s5----------3--3-3--3---0-|
|
|  Q   E  Q.        Q   E Q  E Q.     +Q   E
|---------------|----------------------------|
|--2---2--2-----|---2---2-2------------------|
|--2---2--2-----|---2---2-2------------------|
|--2---2--2-----|---2---2-2------------------|
|--0---0--0-----|---0---0-0------------------|
|---------------|------------0-3------(3)--0-|
|
|  PM----|                   PM~~~~~~~~~~~
|  Q   E  Q   E     Q.    Q  E Q.     +Q   E
|---------------|----------------------------|
|---------------|----------------------------|
|---------------|----------------------------|
|--2---2--2-----|---2-----2------------------|
|--0---0--0-----|---0-----0------------------|
|-------------3-|------------0-3------(3)--0-|


  (F#m)   (A)    A
  Q  E Q  E  H.            W.
|------------------------|------------------------|
|------------------------|------------------------|
|------------------------|------------------------|
|------------------------|------------------------|
|------------------------|------------------------|
|-2--0-2--3--5-----------|-5----------------------|
|
| Q  E Q  E +Q   E E E E   Q.    Q.    Q  E Q.
|------------------------|------------------------|
|----------------2-2-2-2-|-2-----2-----2--2-2-----|
|----------------2-2-2-2-|-2-----2-----2--2-2-----|
|----------------2-2-2-2-|-2-----2-----2--2-2-----|
|---------0-(0)--0-0-0-0-|-0-----0-----0--0-0-----|
|-2--0-2-----------------|------------------------|
|
|                PM|
| Q  E Q  E +Q   E Q   E   Q   E Q   E Q  E Q   E
|------------------------|------------------------|
|------------------------|------------------------|
|------------------------|------------------------|
|------------------4-----|-2---2-4---2-2--2-4---2-|
|---------0-(0)--0-0---0-|-0---0-0---0-0--0-0---0-|
|-2--0-2-----------------|------------------------|


  D             A          N.C.(G)
 6/8           12/8
  Q.    Q   E   Q.   Q.    E  E E  Q   E
|-------------|---------------------------|
|-------------|---------------------------|
|-------------|---------------------------|
|-------------|---------------------------|
|-------------|---------------------------|
|-5-----5---2-|-5----5-----3--3-3--3---0--|
|
| Q   E Q.      Q.   Q.    E  E E  Q   E
|-2---2-2-----|---------------------------|
|-3---3-3-----|-2----2--------------------|
|-2---2-2-----|-2----2--------------------|
|-0---0-0-----|-2----2--------------------|
|-------------|-0----0--------------------|
|-------------|------------3--3-3--3---0--|
|
|           PM-------|
| Q.    Q   E   Q.   Q   E Q.     +Q   E
|-------------|---------------------------|
|-------------|---------------------------|
|-------------|---------------------------|
|-4-----4-----|-2----2--------------------|
|-0-----0---0-|-0----0--------------------|
|-------------|----------0-3------(3)--0h=|


  (F#m)   (A)    A           D                       Bm
                                                    6/8
  Q  E Q  E  Q.    +Q.       W.                      H.
|--------------------------|-----------------------|--------------|
|--------------------------|-----------------------|--------------|
|--------------------------|-----------------------|--------------|
|--------------------------|-----------------------|--------------|
|--------------------------|-----------------------|--------------|
|-2--0-2--3s=5-----(5)\----|-----------------------|--------------|
|
| Q  E Q  E +Q   E  Q.       Q.    Q  E Q  E Q.      Q   E Q.
|--------------------------|-2-----2--2-2--2-2-----|--------------|
|----------------2--2------|-3-----3--3-3--3-3-----|-3---3-3------|
|----------------2--2------|-2-----2--2-2--2-2-----|-4---4-4------|
|----------------2--2------|-0-----0--0-0--0-0-----|-4---4-4------|
|---------0-(0)--0--0------|-----------------------|-2---2-2------|
|-2--0-2-------------------|-----------------------|--------------|
|
| Q  E Q  E +Q.     Q    E   Q   E Q  E Q  E Q   E   Q   E Q   E
|--------------------------|-----------------------|--------------|
|--------------------------|-----------------------|--------------|
|--------------------------|-----------------------|--------------|
|------------------------x-|-7---7-9--7-7--7-9-----|-4---4-4------|
|---------0-(0)----------x-|-5---5-5--5-5--5-5---0-|-2---2-2---4--|
|-2--0-2-------------------|-----------------------|-----------2--|


  F#                        Bm         F#
 12/8
  Q.   +Q   E Q.   +Q   E   Q   E Q  E H.
|-------------------------|----------------------|
|-------------------------|----------------------|
|-------------------------|----------------------|
|-------------------------|----------------------|
|-------------4----(4)----|----------------------|
|-2----(2)--2-2----(2)--2s|=7---7-7s=2-2---------|
|
| Q.    Q   E Q.    Q   E   Q   E Q  E Q.   Q  E
|-2-----2---2-2-----2---2-|------------2----2--2-|
|-2-----2---2-2-----2---2-|-3---x-3--x-2----2--2-|
|-3-----3---3-3-----3---3-|-4---x-4--x-3----3--3-|
|-4-----4---4-4-----4---4-|-4---x-4--x-4----4--4-|
|-4-----4---4-4-----4---4-|-2---x-2--x-4----4--4-|
|-2-----2---2-2-----2---2-|------------2----2--2-|
|
| Q.    Q   E Q.    Q   E   Q.    Q  E Q.   Q  E
|-------------------------|----------------------|
|-------------------------|----------------------|
|-------------------------|-----------------x----|
|-------------------------|-----------------x----|
|-4-----x-----4-----x-----|-2-----x----4---------|
|-2-----x---2-------x---2-|-------x--2---------5-|


                                            To Dbl. Coda
  A
  E  E E E E E E  E E E E E   E  E E E E E E  E E Q   E
|---------------------------|---------------------------|
|---------------------------|---------------------------|
|---------------------------|---------------------------|
|---------------------------|---------------------------|
|-0--0-0-0-0-0-0--0-0-0-0-0-|-0--0-0-0-0-0-0--0-0-0-----|
|---------------------------|---------------------------|
|
| Q.     Q   E Q.     Q   E   Q.     Q   E Q.     Q   E
|---------------------------|---------------------------|
|-2------2---2-2------2---2-|-2------2---2-2------2---2-|
|-2------2---2-2------2---2-|-2------2---2-2------2---2-|
|-2------2---2-2------2---2-|-2------2---2-2------2---2-|
|-0------0---0-0------0---0-|-0------0---0-0------0---0-|
|---------------------------|---------------------------|
|
| PM-----------------------------------------------------
| Q    E Q   E Q    E Q   E   Q    E Q   E Q    E Q   E
|---------------------------|---------------------------|
|---------------------------|---------------------------|
|---------------------------|---------------------------|
|---------------------------|---------------------------|
|-7----7-9---7-7----7-9---7-|-7----7-9---7-7----7-7\----|
|-5----5-5---5-5----5-5---5-|-5----5-5---5-5----5-5\--0-|


  E7
  Q.     E      +E   E  E      E  E  E  E  E
|--------------------------------------------|
|-------15b17==(15)r---15b17==15-15-15-15-15-|
|--------------------------------------------|
|--------------------------------------------|
|--------------------------------------------|
|--------------------------------------------|
|
| Q   E  Q           E  Q         E  E  E  E
|-0---0--0-----------0--0---------0--0-----0-|
|-0---0--0-----------0--0---------0--0-----0-|
|-1---1--1-----------1--1---------1--0h=1--1-|
|-0---0--0-----------0--0---------0----------|
|-2---2--2-----------2--2---------2----------|
|-0---0--0-----------0--0---------0----------|
|
|-----------------------------------------|
| Q   E  Q           E  Q         E  Q     E
|--------------------------------------------|
|--------------------------------------------|
|--------------------------------------------|
|--------------------------------------------|
|-2---2--4-----------2--2---------2--4-----1-|
|-0---0--0-----------0--0---------0--0-----0-|


   E  E  E  E  E  E  E  E  E  E  E     E
|-----------------------------------------|
|-15-15-15-15-15-15-15-15-15-15r15b17-15r-|
|-----------------------------------------|
|-----------------------------------------|
|-----------------------------------------|
|-----------------------------------------|
|
|  Q     E  Q     E  Q     E  E  E     E
|--------------------------------------0--|
|--------------------------------------0--|
|--1-----1--------1--1-----1--0h=1--------|
|--2-----2--------0--0-----0--------------|
|--2-----2--4-----2--2-----2--------------|
|--0-----0--0-----0--0-----0--------------|
|
|  PM---------------------|
|  Q     E  Q     E  Q     E  E  E     E
|-----------------------------------------|
|-----------------------------------------|
|-----------------------------------------|
|--------------------------------------2--|
|--2-----2--4-----2--2-----2--------------|
|--0-----0--0-----0--0-----0--3--4--------|


   Q      E  E      +Q     Q       +E    E      +Q
|------------------------------------------------------|
|-15pb17----15pb17r(15)---15b17===(15)r-15b17==(15)r---|
|------------------------------------------------------|
|------------------------------------------------------|
|------------------------------------------------------|
|------------------------------------------------------|
|
|  Q      E  Q          E  Q        E    E       E   E
|----------------------------------------------------0-|
|----------------------------------------------------0-|
|--1------1-------------1--1--------1----0h======1-----|
|--2------2-------------0--0--------0------------------|
|--2------2--4----------2--2--------2------------------|
|--0------0--0----------0--0--------0------------------|
|
|  PM-------------------|
|  Q      E  Q          E  H.
|------------------------------------------------------|
|------------------------------------------------------|
|------------------------------------------------------|
|------------------------------------------------------|
|--2------2--4----------2------------------------------|
|--0------0--0----------0------------------------------|


  Gtr IV
   E      +Q      E      +E   E  E  E     E  E  E  E
|-------------------------------------------------------||
|-15b17==(15)r---15pb17r(15)-12-------------------------||
|-------------------------------14-12b13----14----12b13-||
|----------------------------------------14----14-------||
|-------------------------------------------------------||
|-------------------------------------------------------||
|
| Gtrs I, II
|  Q           E  Q           E  Q        E  Q     E
|-------------------------------------------------------||
|-------------------------------------------------------||
|--1-----------1--1-----------1--1--------1-------------||
|--2-----------2--2-----------2--2--------2-------------||
|--2-----------2--2-----------2--2--------2--2-----2----||
|--0-----------0--0-----------0--0--------0--0-----0----||


 3rd Verse (2:23)
  E7
   Q.    Q.    H.           Q.    Q   E  Q.        +Q.
|-------------------------|-------------17b19=====(17)r----|
|-------------------------|----------15--------------------|
|-------------------------|--------------------------------|
|-14----------------------|--------------------------------|
|-------------------------|--------------------------------|
|-------------------------|--------------------------------|
|
|  Q   E Q   E Q   E Q  E   Q   E Q   E  Q      E   Q    E
|-------------------------|--------------------------------|
|-------------------------|--------------------------------|
|--1---1-1---1-1---1-1--1-|-1---1-1---1--1------1---1------|
|--2---2-x---0-0---0-x--0-|-0---0-x---0--0------0---x------|
|--2---2-4---2-2---2-4--2-|-2---2-4---2--2------2---4----2-|
|--0---0-0---0-0---0-0--0-|-0---0-0---0--0------0---0----0-|


                                                        ~~
  W.                     Q   E  Q     E  Q.       E  E  E
|----------------------|-------17b19----17b19----17-15----|
|----------------------|----15-------------------------17-|
|----------------------|--------------0-------------------|
|----------------------|----------------------------------|
|----------------------|----------------------------------|
|----------------------|----------------------------------|
|
| Q   E Q  E Q  E Q  E   Q   E  Q     E  Q     E  Q     E
|----------------------|----------------------------------|
|----------------------|----------------------------------|
|-1---1-1--1-1--1-1--1-|-1---1--1-----1--1-----1--1-------|
|-2---2-x--0-0--0-x--0-|-0---0--x-----0--0-----0--x-------|
|-2---2-4--2-2--2-4--2-|-2---2--4-----2--2-----2--4-----2-|
|-0---0-0--0-0--0-0--0-|-0---0--0-----0--0-----0--0-----0-|


   ~~~
   Q.    Q.    H.           Q.    Q   E  E  E  E  E  E  E
|-------------------------|-------------12-------------------|
|-17----------------------|----------12----15-12-------------|
|-------------------------|----------------------15-14-12b14-|
|-------------------------|----------------------------------|
|-------------------------|----------------------------------|
|-------------------------|----------------------------------|
|
|  Q   E Q   E Q   E Q  E   Q   E Q   E  Q     E  Q     E
|-------------------------|----------------------------------|
|-------------------------|----------------------------------|
|--1---1-1---1-1---1-1--1-|-1---1-1---1--1-----1--1----------|
|--2---2-x---0-0---0-x--0-|-0---0-x---0--0-----0--x----------|
|--2---2-4---2-2---2-4--2-|-2---2-4---2--2-----2--4-----2----|
|--0---0-0---0-0---0-0--0-|-0---0-0---0--0-----0--0-----0----|


                                                  D.S. al Coda
                                                  ~~~~~~~~~~~~~~~~~~
   Q  E Q.    H.           Q.     E      +E    E  Q.     +Q    +E
|------------------------|------------------------------------------||
|------------------------|--------------------12--------------------||
|------------------------|-------14b16==(14)r----12-----(12)--(12)\-||
|-14---------------------|------------------------------------------||
|------------------------|------------------------------------------||
|------------------------|------------------------------------------||
|
|  Q  E Q   E Q   E Q  E   Q   E  Q            E  Q   E   Q     E
|------------------------|------------------------------------------||
|------------------------|------------------------------------------||
|--1--1-1---1-1---1-1--1-|-1---1--1------------1--1---1---1---------||
|--2--2-x---0-0---0-x--0-|-0---0--x------------0--0---0---x---------||
|--2--2-4---2-2---2-4--2-|-2---2--4------------2--2---2---4-----2---||
|--0--0-0---0-0---0-0--0-|-0---0--0------------0--0---0---0-----0---||


  &
  E7
  Gtrs I, II
  Q  E Q  E  Q   E E E E   Q  E Q  E Q  E E E E
|----------------------0-|--------------------0-|
|----------------------0-|--------------------0-|
|-1--1----1--1---1-0h1---|-1--1----1-1--1-0h1---|
|-2--2----0--0---0-------|-2--2----0-0--0-------|
|-2--2-4--2--2---2-------|-2--2-4--2-2--2-------|
|-0--0-0--0--0---0-------|-0--0-0--0-0--0-------|
|
| Gtr III
| Q  E Q  E +Q   E E E E   q  E Q  E Q  E E E E
|------------------------|----------------------|
|------------------------|-0--------------------|
|------------------------|----------------------|
|----------------------2-|--------------------2-|
|-2--2-4--2-(2)--2-------|------4----2----------|
|-0--0-0--0-(0)----3h4---|----0----0----0-3h4---|


  Q  E Q  E  Q   E E E E   Q  E Q  E Q  E Q   E
|----------------------0-|----------------------||
|----------------------0-|----------------------||
|-1--1----1--1---1-0h1---|-1--1-1--1-1--1-------||
|-2--2----0--0---0-------|-2--2-2--2-2--2-------||
|-2--2-4--2--2---2-------|-2--2-2--2-2--2-2---2-||
|-0--0-0--0--0---0-------|-0--0-0--0-0--0-0---0-||
|
| PM                       PM-|    PM
| Q  E Q  E  Q   E E E E   Q  E Q  E Q  E E E E
|------------------------|----------------------||
|------------------------|----------------------||
|-----------(1)----------|----------------------||
|----------------------2-|--------------------2-||
|------4--2--------------|------4----2----------||
|-0--0-----------0-3h4---|-0--0----0----2-3h4---||


   4th Verse (3:01)
    E7
    Q  E Q   E  Q   E Q   E   Q  E Q   E Q  E Q   E  3x
||--------------------------|------------------------||
||o-------------------------|-----------------------o||
||--1--1-1---1--1---1-1---1-|-1--1-1---1-1--1-1------||
||--2--2-x---0--0---0-x---0-|-0--0-x---0-0--0-x------||
||o-2--2-4---2--2---2-4---2-|-2--2-4---2-2--2-4---2-o||
||--0--0-0---0--0---0-0---0-|-0--0-0---0-0--0-0---0--||
|
|   PM-|                      PM-|
|   Q  E E E E +Q   E E E E   Q  E E E E Q  E E E E  3x
||--------------------------|------------------------||
||o-------------------------|-----------------------o||
||--------------------------|------------------------||
||-----------2-(2)--------2-|----------2----------2--||
||o-----------------2-5p4-2-|---------------2-5p4-2-o||
||--0--0-3h4----------------|-0--0-3h4---------------||


  Gtr IV
                                                        ~~~
  W.                         E  E  E  E  E  E  E  E  E  Q    +E
|------------------------|----------------------------------------||
|------------------------|-/15-------------------------15---(15)\-||
|------------------------|-/16-16-16-16-16-16-16-16-16-16---(16)\-||
|------------------------|----------------------------------------||
|------------------------|----------------------------------------||
|------------------------|----------------------------------------||
|
| Gtrs I, II
| Q   E Q   E Q  E Q   E     Q     E  Q     E  Q     E  Q     E
|------------------------|----------------------------------------||
|------------------------|----------------------------------------||
|-1---1-1---1-1--1-1---1-|---1-----1--1-----1--1-----1--1---------||
|-2---2-x---0-0--0-x---0-|---0-----0--x-----0--0-----0--x---------||
|-2---2-4---2-2--2-4---2-|---2-----2--4-----2--2-----2--4-----2---||
|-0---0-0---0-0--0-0---0-|---0-----0--0-----0--0-----0--0-----0---||
|
| Gtr III
| Q   E E E E Q  E E Q       Q     E  E  E  E  Q     E  E E   E
|------------------------|----------------------------------------||
|------------------------|----------------------------------------||
|------------------------|----------------------------------------||
|-----------2--------2---|------------------2--------2------------||
|----------------2h4-2---|------------------------------------2---||
|-0---0-3h4--------------|---0-----0--3h=4-----0--------3h4-------||


 5th Chorus (3:16)
  E
  Gtr IV
  H.          Q      E  E      +E   E   W.
|-------------------------------------|----------------------|
|-------------------15----------------|----------------------|
|------------14b16-----14pb16r(14)-13-|----------------------|
|-------------------------------------|----------------------|
|-------------------------------------|----------------------|
|-------------------------------------|----------------------|
|
| Gtrs I, II
| Q   E Q  E  Q      E  Q           E   Q   E Q  E Q  E Q  E
|-------0--0--0------0----------------|-------0--0-0--0------|
|-------0--0--0------0----------------|-------0--0-0--0------|
|-------1--1--1------1--------------1-|-1---1-1--1-1--1------|
|-2---2-2--2--2------2--------------2-|-2---2-2--2-2--2-2--x-|
|-2---2-2--2--2------2--4-----------2-|-2---2-2--2-2--2-2--x-|
|-0---0-0--0--0------0--0-----------0-|-0---0-0--0-0--0-0--x-|


  A
  H.          Q      E Q.      W.
|----------------------------|------------------------|
|-------------------17-------|------------------------|
|------------16b18-----------|------------------------|
|----------------------------|------------------------|
|----------------------------|------------------------|
|----------------------------|------------------------|
|
| Q   E Q.    Q      E Q   E   Q   E Q  E +Q   E Q  E
|-------5--------------------|-----5-5--5-(5)--5------|
|-------5--------------7---5-|-----5-5--5-(5)--5------|
|-------6-----6------6-7---5h|=6---6-6--6-(6)--6------|
|-7---7-7-----7------7-7-----|-------7--7-(7)--7-x--x-|
|-7---7-7-----7------7-------|-------7--7-(7)--7-x--x-|
|-5---5-5-----5------5-------|-------5--5-(5)--5-x--x-|


  B
  H.          Q      E Q.      Q.   Q   E  Q.       Q       +E
|----------------------------|------------19b21----19pb21r=(19)-|
|-------------------19-------|----------------------------------|
|------------18b20-----------|---------17-----------------------|
|----------------------------|----------------------------------|
|----------------------------|----------------------------------|
|----------------------------|----------------------------------|
|
| Q   E Q.    Q      E Q   E   Q.   Q   E +Q     E  Q.
|-------7--------------------|------7---7-(7)-------------------|
|-------7--------------9---7-|------7---7-(7)----9--------------|
|-------8--------------9---7h|=8----8---8-(8)----9--------------|
|-9---9-9-----9------9-9-----|------9---9-(9)----9--------------|
|-9---9-9-----9------9-------|------9---9-(9)-------------------|
|-7---7-7-----7------7-------|------7---7-(7)-------------------|


  A
   ~~~~~~~~~~
   Q.    +Q    +E   H.           Q   E  Q      E Q.    Q   E
|-17----(17)--(17)\------------|-------14b16--14----------12-|
|------------------------------|----12-----------------------|
|------------------------------|-----------------------------|
|------------------------------|-----------------------------|
|------------------------------|-----------------------------|
|------------------------------|-----------------------------|
|
|  Q.     Q.        Q   E Q  E   Q   E  Q.       Q   E Q   E
|--5------5---------5----------|-5---5--5--------5-----------|
|--5------5---------5---7------|-5---5--5--------5---7-------|
|--6------6---------6---7------|-6---6--6--------6---7-----1-|
|--7------7---------7---7------|-7---7--7--------7---7-----2-|
|--7------7---------7---x----7-|-7---7--7--------7---x-----2-|
|--5------5---------5---5-5--5-|-5---5--5--------5---5-0---0-|


  E7
   ~~~
   Q.    Q.     Q.    Q.      W
|-12------------------------|----------------------|
|--------------12-----------|----------------------|
|---------------------------|----------------------|
|---------------------------|----------------------|
|---------------------------|----------------------|
|---------------------------|----------------------|
|
|  Q   E Q   E  Q   E E E E   Q  E Q  E Q  E E E E
|-------------------0-----0-|--------------------0-|
|-------------------0-----0-|--------------------0-|
|--1---1-----1--1---1-0h1---|-1--1----1-1--1-0h1---|
|--2---2-----2--2-----------|-2--2----0-0--0-------|
|--2---2-4---2--2-----------|-2--2-4--2-2--2-------|
|--0---0-0---0--0-----------|-0--0-0--0-0--0-------|


  W                      W
|----------------------|---------------------||
|----------------------|---------------------||
|----------------------|---------------------||
|----------------------|---------------------||
|----------------------|---------------------||
|----------------------|---------------------||
|
| Q  E Q  E Q  E E E E   Q  E Q  E Q  E Q  E
|--------------------0-|---------------------||
|--------------------0-|---------------------||
|-1--1----1-1--1-0h1---|-1--1-1--1-1--1------||
|-2--2----0-0--0-------|-2--2-2--2-2--2------||
|-2--2-4--2-2--2-------|-2--2-2--2-2--2-2--2-||
|-0--0-0--0-0--0-------|-0--0-0--0-0--0-0--0-||


   5th Verse (3:38)
    E7
    Gtrs I, II
    Q  E Q  E Q  e Q  E   Q  E Q  E Q  E E E E  3x
||----------------------|-----------------------||
||o---------------------|----------------------o||
||--1--1-1--1----1-2--1-|-1--1-2--1-1--1--------||
||--0--0-x--0----0-x--0-|-0--0-x--0-0--0--------||
||o-2--2-4--2----2-4--2-|-2--2-4--2-2--2-----2-o||
||--0--0-0--0----0-0--0-|-0--0-0--0-0--0-3h4-0--||


                          D.S.S. al Dbl. Coda
  Gtr IV
  W                      Q  Q   Q   Q  Q   Q
|----------------------|-----------------------||
|----------------------|-----------------------||
|----------------------|-----------------------||
|----------------------|-----------------------||
|----------------------|----2---3---4--5---6---||
|----------------------|----0---1---2--3---4---||
|
| Gtrs I, II
| Q  E Q  E Q  E E E E   Q  E Q   E Q  E Q   E
|----------------------|-----------------------||
|----------------------|-----------------x-----||
|-1--1-1--1-1--1-------|-1--1-1---1-1--1-x-----||
|-0--0-x--0-0--0-----2-|-x--x-x---x-x--x-x-----||
|-2--2-4--2-2--2-------|-2--2-2---2-2--2-------||
|-0--0-0--0-0--0-3h4---|-0--0-0---0-0--0-------||
|
| Gtr III
| W                      Q  Q   Q   Q  Q   Q
|----------------------|-----------------------||
|----------------------|-----------------------||
|----------------------|-----------------------||
|----------------------|-----------------------||
|----------------------|----2---3---4--5---6---||
|----------------------|----0---1---2--3---4---||


  &&
  E
  Gtrs I, II
  Q  E Q.   Q  E Q  E   Q  E Q  E Q  E Q  E
|------0----0-------0-|----0-0--0-0-------0--|
|------0----0----2--0-|----0-0--0-0----2--0--|
|-1--1-1----1--0-2--0h|=1--1-1--1-1--0-2--0h=|
|-2--2-2----2--0-2--2-|----2-2--2-2--0-2--0h=|
|-2--2-2----2--0-0--2-|----2-2--2-2--0-0--0h=|
|-0--0-0----0--0----0-|----0-0--0-0--0----0--|


  Q.   Q.   Q  E Q  E   Q.   Q  E Q  E Q  E
|------0----0--0------|------0--0-0--0-0--0-||
|------0----0--0-2--0-|------0--0-0--0-0--0-||
|-1----1----1--1-2--0h|=1----1--1-1--1-1--1-||
|-2----2----2--2-2--2-|------2--2-2--2-2--2-||
|-2----2----2--2-0--2-|------2--2-2--2-2--2-||
|------0----0--0----0-|------0--0-0--0-0--0-||


 6th Chorus (4:24)
  E
  Gtrs I, II
  Q  E Q   E Q  E Q  E   Q  E Q   E Q  E Q   E
|------0---0-0--0------|------0---0-0--0-------|
|------0---0-0--0------|------0---0-0--0-------|
|------1---1-1--1----1-|-1--1-1---1-1--1-------|
|-2--2-2---2-2--2----2-|-2--2-2---2-2--2-2---x-|
|-2--2-2---2-2--2-4--2-|-2--2-2---2-2--2-2---x-|
|-0--0-0---0-0--0-0--0-|-0--0-0---0-0--0-0---x-|
|
| Gtr III
| PM-------------------------------------|
| Q  E E E E Q  E Q  E   Q  E E E E Q  E E E E
|----------------------|-----------------------|
|----------------------|-----------------------|
|----------------------|-----------------------|
|--------------------2-|-----------------------|
|-2--2-4-4-2-2--2-4--2-|-2--2-4-4-2-2--2-4-4-4-|
|-0--0-0-----0--0-0----|-0--0-0-----0--0-0-----|


  A
  Q  E Q.    Q  E Q   E   Q  E Q  E +Q   E Q   E
|------5----------------|----5-5--5-(5)--5-------|
|------5----------7---5-|----5-5--5-(5)--5-------|
|------6-----6--6-7---5h|=6--6-6--6-(6)--6-------|
|-7--7-7-----7--7-7-----|------7--7-(7)--7-x---x-|
|-7--7-7-----7--7-------|------7--7-(7)--7-x---x-|
|-5--5-5-----5--5-------|------5--5-(5)--5-x---x-|
|
| PM------------|         PM-------------|
| Q  E Q   E Q  E E E E   Q  E Q  E  Q   E E E E
|---------------------5-|------------------------|
|---------------------5-|------------------------|
|---------------------6-|------------------------|
|---------------------7-|------------------------|
|-7--7-9---7-7--7-----7-|-7--7-9--7--7---7-----7-|
|-5--5-5---5-5--5-5h9---|-5--5-5--5--5---5-5h9---|


  B
  Q  E  Q.      Q  E Q    E   Q.     Q  E +Q   E Q.
|-------7-------------------|--------7--7-(7)-----------|
|-------7------------9----7-|--------7--7-(7)--9--------|
|-------8------------9----7h|=8------8--8-(8)--9--------|
|-9--9--9-------9--9-9------|--------9--9-(9)--9--------|
|-9--9--9-------9--9--------|--------9--9-(9)-----------|
|-7--7--7-------7--7--------|--------7--7-(7)-----------|
|
| PM-----------------|        PM---------------|
| Q  E  E   E E Q  E E  E E   Q   E  Q  E  Q   E E  E E
|---------------------------|---------------------------|
|---------------------------|---------------------------|
|---------------------------|---------------------------|
|---------------------------|-------------------------9-|
|-9--9-11--11---9---------9-|-------11-----9----------9-|
|-7--7--7-----7-7--7-7h11---|-7---7--7--7--7---7-7h11---|


  A
  Q.    Q.     Q   E Q   E   Q  E Q.     Q  E Q   E
|-5-----5------5-----------|-5--5-5------5----------|
|-5-----5------5---7-------|-5--5-5------5--7-------|
|-6-----6------6---7-------|-6--6-6------6--7-----1-|
|-7-----7------7---7-------|-7--7-7------7--7-----2-|
|-7-----7------7---x-----7-|-7--7-7------7--x-----2-|
|-5-----5------5---5-5---5-|-5--5-5------5--5-0---0-|
|
| Q   E Q   E  E E E E E E   Q  E Q   E  Q  E E E E
|--------------------------|------------------------|
|--------------------------|------------------------|
|--------------------------|------------------------|
|--------------------------|------------------------|
|-7-----9-----10s9p7-----7-|-7----9-----10--9-----7-|
|-5---5-5---5--5-----5h9---|-5--5-5---5--5--5-5h9---|


  E7
  Q  E Q   E Q  E E E E   Q  E Q   E Q  E E E E
|---------------0-----0-|---------------------0-|
|---------------0-----0-|---------------------0-|
|-1--1-----1-1--1-0h1---|-1--1-----1-1--1-0h1---|
|-2--2-----2-2----------|-2--2-----0-0--0-------|
|-2--2-4---2-2----------|-2--2-4---2-2--2-------|
|-0--0-0---0-0----------|-0--0-0---0-0--0-------|
|
|                         PM-|       PM-|     PM
| Q  E E E E Q  E Q   E   Q  E E E E Q  E Q   E
|-----------------------|-----------------------|
|-----------------------|-----------------------|
|-----------------------|-----------------------|
|---------------------2-|-----------------------|
|----------2------4---2-|----------2------2-----|
|-0--0-3h4---0--0-------|-0--0-3h4---0--0-----0-|


  Gtr IV
  W.                       H.          Q.    E  E  E
|------------------------|---------------------------||
|------------------------|---------------------12-12-||
|------------------------|---------------------------||
|------------------------|---------------------------||
|------------------------|---------------------------||
|------------------------|---------------------------||
|
| Gtrs I, II
| Q   E Q   E Q  E E E E   Q   E Q   E Q   E Q     E
|----------------------0-|---------------------------||
|----------------------0-|---------------------------||
|-1---1-----1-1--1-0h1---|-1---1-1---1-1---1---------||
|-2---2-----0-0--0-------|-2---2-2---2-2---2---------||
|-2---2-4---2-2--2-------|-2---2-2---2-2---2-2-----2-||
|-0---0-0---0-0--0-------|-0---0-0---0-0---0-0-----0-||
|
| Gtr III
| PM--|       PM-|         PM--|       PM--|
| Q   E E E E Q  E E E E   Q   E E E E Q   E E  E  E
|------------------------|---------------------------||
|------------------------|---------------------------||
|------------------------|---------------------------||
|------------------------|---------------------------||
|-----------2----------2-|-----------2-------------2-||
|-0---0-3h4---0--0-3h4---|-0---0-3h4---0---0-3h=4----||


 Outro (4:46)
  (E7)
  Gtr IV
   q   E E  E  E  q    E E  E  E    q   E E  E  E  Q   E E  a  E  E
|--------------------------------|----------------------------------|
|-12--12---12-12-12---12---12-12-|-12--14---12-12-12--14---------12-|
|--------------------------------|-------------------------12s13----|
|--------------------------------|----------------------------------|
|--------------------------------|----------------------------------|
|--------------------------------|----------------------------------|
|
| Gtr II
|      ~~~~~~~
|  Q   Q    Q     Q.     Q     E    Q   E Q     E  Q   E Q        E
|--0---0----0-----0--------------|------0--------------0------------|
|-/3---3----3-----3\-----0-------|------0-2-----0------0-0--------0-|
|-/4---4----4-----4\-----0-----1-|--1-----2-----0--1-----0--------0-|
|------------------------0-----2-|--2-----2-----0--2-----0--------2-|
|------------------------0-----2-|--2-----x-----0--2-----0--------2-|
|------------------------0-----0-|--0-----0-----0--0-----0--------0-|
|
| Gtr III
|  PM-|                             PM-|
|  Q   E E  E  E +Q    E E  E  E    Q   E E  E  E  Q   E E     E  E
|--------------------------------|----------------------------------|
|--------------------------------|----------------------------------|
|--------------------------------|----------------------------------|
|------------------------------2-|--------------2--2--------------2-|
|--------------2-(2)-----5p=4--2-|---------------------2-5p====4--2-|
|--0---0-3h=4----------0---------|--0---0-3h=4----------------------|


   Q   E  E   E  E  Q    E E  E  E
|-----------------------------------|
|-12--14-----12-12-12---14---12-12--|
|-----------------------------------|
|-----------------------------------|
|-----------------------------------|
|-----------------------------------|
|
|      ~~~~~~~~~~~~
|  Q   E +Q      E  Q.     Q     E
|--0---0-(0)-----0--0---------------|
|--3---3-(3)-----3--3\-----0--------|
|--4---4-(4)-----4--4\-----0-----1--|
|--------------------------0-----2--|
|--------------------------0-----2--|
|--------------------------0-----0--|
|
|  PM-|
|  Q   E  E   E  E  Q    E E  E  E
|-----------------------------------|
|-----------------------------------|
|-----------------------------------|
|----------------2-(0)---2-------2--|
|------------------(0)---2-5p=4--2--|
|--0---0--3---4---------------------|


   H.              +Q    +E  Q    E
|-14b16===========(14)r=(14)--------|
|--------------------------------12-|
|-----------------------------------|
|-----------------------------------|
|-----------------------------------|
|-----------------------------------|
|
|  Q      E Q   E   Q     E  Q    E
|---------0-------------------------|
|---------0-2-----------------------|
|--1--------2---0---1-----1--1----1-|
|--2--------2---0---2-----2--2----2-|
|--2--------2---0---2-----2--2----2-|
|--0--------0---0---0-----0--0----0-|
|
|  PM
|  Q      E E E E  +Q     E  E E  E
|-----------------------------------|
|-----------------------------------|
|-----------------------------------|
|---------------2--(2)----2-------2-|
|-------------------------2--5p4--2-|
|--0------0-3h4---------------------|


                                 ~~~
   E      +E       +E    Q    E  Q.     Q    E
|-14pb16r(14)b16==(14)r-12------12-----14---12-|
|----------------------------14----------------|
|----------------------------------------------|
|----------------------------------------------|
|----------------------------------------------|
|----------------------------------------------|
|
|  Q                E    Q    E  Q   E  E E  E
|----------------------------------------------|
|----------------------------------------------|
|--1----------------1----2----0--0---0---------|
|--x----------------x----x----0--0---x---------|
|--2----------------2----4----0--0---0-------2-|
|--0----------------0----0----0--0---0--3h4----|
|
|  PM-------------|
|  Q                E    E E  E  Q   E  E E  E
|----------------------------------------------|
|----------------------------------------------|
|----------------------------------------------|
|--------------------------------2-----------2-|
|--------------------------------2---2--5p4--2-|
|--0----------------0----0-3h=4----------------|


                                 ~~~                                            ~~~
   E      +E       +E    Q    E  Q.     Q    E    E      +E       +E    Q    E  Q.     E  E  E
|-14pb16r(14)b16==(14)r-12------12-----14---12-|-14pb16r(14)b16==(14)r-12------12-----14-12-14-|
|----------------------------14----------------|----------------------------14-----------------|
|----------------------------------------------|-----------------------------------------------|
|----------------------------------------------|-----------------------------------------------|
|----------------------------------------------|-----------------------------------------------|
|----------------------------------------------|-----------------------------------------------|
|
|  Q                E    Q    E  Q   E  E E  E    Q                E    Q    E  Q   E  E  E  E
|----------------------------------------------|-----------------------------------------------|
|----------------------------------------------|-----------------------------------------------|
|--1----------------1----2----0--0---0---------|--1----------------1----2----0--0---0----------|
|--x----------------x----x----0--0---x---------|--x----------------x----x----0--0---x----------|
|--2----------------2----4----0--0---0-------2-|--2----------------2----4----0--0---0--------2-|
|--0----------------0----0----0--0---0--3h4----|--0----------------0----0----0--0---0--3h=4----|
|
|  PM-------------|                               PM-------------|
|  Q                E    E E  E  Q   E  E E  E    Q                E    E E  E  Q   E  E  E  E
|----------------------------------------------|-----------------------------------------------|
|----------------------------------------------|-----------------------------------------------|
|----------------------------------------------|-----------------------------------------------|
|--------------------------------2-----------2-|--------------------------------2------------2-|
|--------------------------------2---2--5p4--2-|--------------------------------2---2--5p=4--2-|
|--0----------------0----0-3h=4----------------|--0----------------0----0-3h=4-----------------|


   E      +E       +E    E  E  E  E  E  E  E  E  E
|-14pb16r(14)b16==(14)r-12----12-------------------*|
|--------------------------14----14-12----14----12-*|
|--------------------------------------13----13----*|
|--------------------------------------------------*|
|--------------------------------------------------*|
|--------------------------------------------------*|
|
|  Q                E    Q     E  Q     E  E  E  E
|--------------------------------------------------*|
|--------------------------------------------------*|
|--1----------------1----2-----0--0-----0----------*|
|--x----------------x----x-----0--0-----x----------*|
|--2----------------2----4-----0--0-----0--------2-*|
|--0----------------0----0-----0--0-----0--3h=4----*|
|
|  PM-------------|
|  Q                E    E  E  E  Q     E  E  E  E
|--------------------------------------------------*|
|--------------------------------------------------*|
|--------------------------------------------------*|
|---------------------------------2--------------2-*|
|---------------------------------2-----2--5p=4--2-*|
|--0----------------0----0--3h=4-------------------*|



Duration Legend
---------------
W - whole; H - half; Q - quarter; E - 8th; S - 16th; T - 32nd; X - 64th; a - acciaccatura
+ - note tied to previous; . - note dotted; .. - note double dotted
Uncapitalized letters represent notes that are staccato (1/2 duration)
Irregular groupings are notated above the duration line
Duration letters will always appear directly above the note/fret number it represents the
duration for.  Duration letters with no fret number below them represent rests.  Multi-
bar rests are notated in the form Wxn, where n is the number of bars to rest for.  Low
melody durations appear below the staff

Tablature Legend
----------------
 h   - hammer-on
 p   - pull-off
 b   - bend
 pb  - pre-bend
 r   - bend release (if no number after the r, then release immediately)
 /\  - slide into or out of (from/to "nowhere")
 s   - legato slide
 S   - shift slide
 - natural harmonic
[n]  - artificial harmonic
n(n) - tapped harmonic
 ~   - vibrato
 tr  - trill
 T   - tap
 TP  - trem. picking
 PM  - palm muting
\n/  - tremolo bar dip; n = amount to dip
 \n  - tremolo bar down
 n/  - tremolo bar up
/n\  - tremolo bar inverted dip
 =   - hold bend; also acts as connecting device for hammers/pulls
 <> - volume swell (louder/softer)
 x   - on rhythm slash represents muted slash
 o   - on rhythm slash represents single note slash

Misc Legend
-----------
 |  - bar
||  - double bar
||o - repeat start
o|| - repeat end
*|  - double bar (ending)
 :  - bar (freetime)
 $  - Segno
 &  - Coda
Tempo markers -  = BPM(8/16=s8/s16), where s8 = swing 8ths, s16 = swing 16ths

comments
print report bad tab
1 comment total.
0 reply
IZZYs88 wrote on May 28 2011, 01:46 pm

Chords used: E, A, B, Bsus4, G, D, F#, Amaj7. Most of your chords are right.

I want to post or [tab]
guest
You may want to rate the tab now too:
select rating
Please do not post tabs as comments. Select "correction" instead!