Oops, an error
Loading. Please wait.

Face The Day Bass Tab

378 views 1 this week
no commentswrite comment
1 2 3 4 5
please rate
Autoscroll
+/-
esc
set tempo
stop
Contributor
Difficulty
intermediate
WARNING: You are trying to view
                                    content from Ultimate-Guitar.com
                                    in an unauthorized application,
                                    which is prohibited.

                                    Please use an official Ultimate
                                    Guitar Tabs application for iPhone,
                                    iPad or Android to access legitimate
                                    chords, guitar, bass, and drum tabs
                                    from Ultimate-Guitar.com database.

                                    Type "ultimate guitar tabs" in Apple
                                    App Store's or Android Market's
                                    search to find the application.
-----------------------------------------------------------------------------
		      Face the Day - Great White (BASS)
                       
-----------------------------------------------------------------------------
Tabbed by: Scotto10

Tuning: Standard

=============================================================================


Bass



     W                   H.           E  E     Q.     E  E  E  E  E   
G||-------------------|--5------------------|---------------------7--|
D||-------------------|------------------7--|--L------7-----5--7-----|
A||-------------------|---------------7-----|------------7-----------|
E||-------------------|---------------------|------------------------|


  H        E  E  E  E     Q.     E  E  E  E  E     H        E  E  E  E   
--5--------L-----------|---------------------7--|--5--------L-----9--5--|
--------------7-----7--|--7------------5--7-----|--------------7--------|
-----------------7-----|---------7--7-----------|-----------------------|
-----------------------|------------------------|-----------------------|


  H        E  E  E  E     H        E  Q.        H        E  E  E  E   
--L--------5--9-----5--|--L--------L---------|--------------------7--|
-----------------7-----|---------------------|--------------5--7-----|
-----------------------|---------------------|-----------7-----------|
-----------------------|---------------------|-----------------------|


  H.           E  E     Q.     E  E  E  E  E     H        E  E  E  E   
--5------------------|---------------------7--|--5--------L-----------|
------------------7--|--L------7-----5--7-----|--------------7-----7--|
---------------7-----|------------7-----------|-----------------7-----|
---------------------|------------------------|-----------------------|


  Q.     E  E  E  E  E     H        E  E  E  E     H        E  E  E  E   
---------------------7--|--5--------L-----9--5--|--L--------5--9-----5--|
--7------------5--7-----|--------------7--------|-----------------7-----|
---------7--7-----------|-----------------------|-----------------------|
------------------------|-----------------------|-----------------------|


  H        E  E  E  E     H        E  E  E  E     H.           E  E   
--L--------L-----------|--------------------7--|--5------------------|
-----------------5--7--|--L-----------5--7-----|------------------7--|
--------------7--------|-----------7-----------|---------------7-----|
-----------------------|-----------------------|---------------------|


  H        E  E  E  E     H        E  E  E  E     Q.     E  E  E  E  E   
--------------------7--|--5--------L-----9-----|---------------------7--|
--7-----------5--7-----|--------------7-----7--|--7------7-----5--7-----|
-----------7-----------|-----------------------|------------7-----------|
-----------------------|-----------------------|------------------------|


  H        E  E  E  E     H.           E  E     H        E   E   E   E   
--5--------L-----9--7--|--L------------9--7--|--L-----------14----------|
--------------7--------|---------------------|--------------------------|
-----------------------|---------------------|----------------------12--|
-----------------------|---------------------|------------------12------|


   W                    H        E  E  E  E     E  E  E  E  E  E  E  E   
--------------------|------------------------|--------------------------|
--------------------|------------------------|--------------------------|
---L----------------|---L--------------------|--------------------------|
--------------------|---------------0--3--4--|--5--5--5--5--5--5--5--5--|


  E  E  E  E  E  E  E  E     E  E  E  E  E  E  E  E   
--------------------------|--------------------------|
--------------------------|--------------------------|
--------------------------|--------------------------|
--5--5--5--5--5--5--5--5--|--5--5--5--5--5--5--5--5--|


  E  E  E  E  E  E  E  E     E  E  E  E  E  E  E  E   
--------------------------|--------------------------|
--------------------------|--------------------------|
--------------------------|--------------------------|
--5--5--5--5--5--5--5--5--|--5--5--5--5--5--5--5--5--|


  E  E  E  E  E  E  E  E     E  E  E  E  E  E  E  E   
--------------------------|--------------------------|
--------------------------|--------------------------|
--------------------------|--------------------------|
--5--5--5--5--5--5--5--5--|--5--5--5--5--5--5--5--5--|


  E  E  E  E  E  E  E  E     E  E  E  E  E  E  E  E   
--------------------------|--------------------------|
--------------------------|--------------------------|
--------------------------|--------------------------|
--5--5--5--5--5--5--5--5--|--5--5--5--5--5--5--5--5--|


  E  E  E  E  E  E  E  E     E  E  E  E  E  E  E  E   
--------------------------|--------------------------|
--------------------------|--------------------------|
--------------------------|--------------------------|
--5--5--5--5--5--5--5--5--|--5--5--5--5--5--5--5--5--|


  E  E  E  E  E  E  E  E     E  E  E  E  E  E  E  E   
--------------------------|--------------------------|
--------------------------|--------------------------|
--------------------------|--------------------------|
--5--5--5--5--5--5--5--5--|--5--5--5--5--5--5--5--5--|


  E  E  E  E  E  E  E  E     E  E  E  E  E  E  E  E   
--------------------------|--------------------------|
--------------------------|--------------------------|
--------------------------|--------------------------|
--5--5--5--5--5--0--3--4--|--5--5--5--5--5--5--5--5--|


  E  E  E  E  E  E  E  E     H        E  E  E  E     H        E  E  E  E   
-----------------------7--|--5--------L-----9--7--|--L--------L-----9--5--|
-----------------5--7-----|--------------7--------|--------------7--------|
--------------7-----------|-----------------------|-----------------------|
--5--5--5--5--------------|-----------------------|-----------------------|


  H        E  E  E  E     H        E  E  E  E     H        E  E  E  E   
--L--------L-----------|--------------------7--|--5--------L--9-----7--|
-----------------5--7--|--L-----------5--7-----|-----------------7-----|
--------------7--------|-----------7-----------|-----------------------|
-----------------------|-----------------------|-----------------------|


  H        E  E  E  E     H        E  E  E  E     H        E  E  E  E   
--L--------L-----9--5--|--L--------L-----------|-----------------------|
--------------7--------|-----------------5--7--|--7--------------------|
-----------------------|--------------7--------|-----------------------|
-----------------------|-----------------------|--------------0--3--4--|


  E  E  E  E  E  E  E  E     E  E  E  E  E  E  E  E   
--------------------------|--------------------------|
--------------------------|--------------------------|
--------------------------|--------------------------|
--5--5--5--5--5--5--5--5--|--5--5--5--5--5--5--5--5--|


  E  E  E  E  E  E  E  E     E  E  E  E  E  E  E  E   
--------------------------|--------------------------|
--------------------------|--------------------------|
--------------------------|-----------------------3--|
--5--5--5--5--5--5--5--5--|--5--5--5--5--5--5--5-----|


  E  E  E  E  E  E  E  E     E  E  E  E  E  E  E  E   
--------------------------|--------------------------|
--------------------------|--------------------------|
--------------------------|--------------------------|
--5--5--5--5--5--5--5--5--|--5--5--5--5--5--5--5--5--|


  E  E  E  E  E  E  E  E     E  E  E  E  E  E  E  E   
--------------------------|--------------------------|
--------------------------|--------------------------|
--------------------------|--------------------------|
--5--5--5--5--5--5--5--5--|--5--5--5--5--5--5--5--5--|


  E  E  E  E  E  E  E  E     E  E  E  E  E  E  E  E   
--------------------------|--------------------------|
--------------------------|--------------------------|
--------------------------|--------------------------|
--5--5--5--5--5--5--5--5--|--5--5--5--5--5--5--5--5--|


  E  E  E  E  E  E  E  E     E  E  E  E  E  E  E  E   
--------------------------|--------------------------|
--------------------------|--------------------------|
--------------------------|--------------------------|
--5--5--5--5--5--5--5--5--|--5--5--5--5--5--5--5--5--|


  E  E  E  E  E  E  E  E     E  E  E  E  E  E  E  E   
--------------------------|--------------------------|
--------------------------|--------------------------|
--------------------------|--------------------------|
--5--5--5--5--5--5--5--5--|--5--5--5--5--5--5--5--5--|


  E  E  E  E  E  E  E  E     E  E  E  E  E  E  E  E   
--------------------------|--------------------------|
--------------------------|--------------------------|
--------------------------|-----------------------3--|
--5--5--5--5--5--5--5--5--|--5--5--5--5--5--5--5-----|


  E  E  E  E  E  E  E  E     E  E  E  E  E  E  E  E   
--------------------------|--------------------------|
--------------------------|--------------------------|
--5--5--5--5--5--5--5--5--|--5--5--5--5--5--5--5--3--|
--------------------------|--------------------------|


  E  E  E  E  E  E  E  E     E  E  E  E  E  E  E  E   
--------------------------|--------------------------|
--------------------------|--------------------------|
--5--5--5--5--5--5--5--5--|--5--5--5--5--5--3-----3--|
--------------------------|--------------------5-----|


  E  E  E  E  E  E  E  E     E  E  E  E  E  E  E  E   
--------------------------|--------------------------|
--------------------------|--------------------------|
--5--5--5--5--5--5--5--5--|--5--5--5--5--5--5--5--3--|
--------------------------|--------------------------|


  E  E  E  E  E  E   Q        Q    H        E  E     E  E  E  E  E  E  E  E   
---------------------------|----------------------|--------------------------|
---------------------------|----------------------|--------------------------|
--5--5--5--5--5--5--12\----|----------------------|--------------------------|
---------------------------|--7----0-----------3--|--5--5--5--5--5--5--5--5--|


  E  E  E  E  E  E  E  E     E  E  E  E  E  E  E  E   
--------------------------|--------------------------|
--------------------------|--------------------------|
--------------------------|--------------------------|
--5--5--5--5--5--0--3--4--|--5--5--5--5--5--5--5--5--|


  E  E  E  E  E  E  E  E     H        E  E  E  E     H        E  E  E  E   
-----------------------7--|--5--------L-----9--7--|--L--------L-----9--5--|
-----------------5--7-----|--------------7--------|--------------7--------|
--------------7-----------|-----------------------|-----------------------|
--5--5--5--5--------------|-----------------------|-----------------------|


  H        E  E  E  E     H        E  E  E  E     H.           E  E   
--L--------L-----------|--------------------7--|--5------------------|
-----------------5--7--|--L-----------5--7-----|------------------7--|
--------------7--------|-----------7-----------|---------------7-----|
-----------------------|-----------------------|---------------------|


  H        E  E  E  E     H        E  E  E  E     H        E  E  E  E   
--------------------7--|--5--------L-----9-----|--------------------7--|
--L-----------5--7-----|--------------7-----7--|--L-----------5--7-----|
-----------7-----------|-----------------------|-----------7-----------|
-----------------------|-----------------------|-----------------------|


  H        E  E  E  E     H        E  E  E  E     H        E  E  E  E   
--5--------L-----9--7--|--7--------7--9-----5--|--5--------L-----------|
--------------7--------|-----------------7-----|-----------------5--7--|
-----------------------|-----------------------|--------------7--------|
-----------------------|-----------------------|-----------------------|


  H        E  E  E  E     E  E  E  E  E  E  E  E     E  E  E  E  E  E  E  E   
--------------------7--|--5-----------------------|--------------------------|
--7-----------5--7-----|--------------5--7-----5--|--------7-----5--7-----7--|
-----------7-----------|-----0--0--0--------0-----|--------------------------|
-----------------------|--------------------------|--5--5-----5--------5-----|


  E  E  E  E  E  E  E  E     E  E  E  E  E  E  E  E   
--------------------------|--------------------------|
--------7-----5--7-----7--|--------------------------|
--------------------------|-----5--7--7--7--5--3-----|
--5--5-----5--------5-----|--5--------------------3--|


  E  E  E  E  E  E  E  E     E  E  E  E  E  E  E  E   
--------------------------|--------------------------|
--------------------------|-----------------------5--|
--------------3--3--------|--------------3--5--7-----|
--5--5--3--5--------5--3--|--5--5--3--5--------------|


  E  E  E  E  E  E  E  E     E  E  E  E  E  Q.        E  E  E  E  E  E  E  E   
--------------------------|------------------------|--------------------------|
--7--7--7--7--5--7-----7--|--L--5------------------|--------------------------|
--------------------------|--------7--6--5--3------|-----------------------3--|
--------------------------|------------------------|--5--5--5--5--5--5--5-----|


  E  E  E  E  E  E  E  E     E  E  E  E  E  E  E  E   
--------------------------|--------------------------|
--------------------------|--------------------------|
--5--5--5--5--5--5--5--5--|--5--5--5--5--5--5--5--3--|
--------------------------|--------------------------|


  E  E  E  E  E  E  E  E     E  E  E  E  E  E  E  E   
--------------------------|--------------------------|
--------------------------|--------------------------|
--5--5--5--5--5--5--5--5--|--5--5--5--5--5--5--5--3--|
--------------------------|--------------------------|


  E  E  E  E  E  E  E  E     E  E  E  E  E  E  E  E   
--------------------------|--------------------------|
--------------------------|--------------------------|
--5--5--5--5--5--5--5--5--|--5--5--5--5--5--5--5--3--|
--------------------------|--------------------------|


  E  E  E  E  E  E  E  E     Q    Q    E  E  E  E     E  E  E  E  E  E  E  E   
--------------------------|------------------------|--------------------------|
--------------------------|------------------------|--------------------------|
--5--5--5--5--5--5--5--5--|------------------------|--------------------------|
--------------------------|--7----0----L--0--3--4--|--5--5--5--5--5--5--5--5--|


  E  E  E  E  E  E  E  E     E  E  E  E  E  E  E  E   
--------------------------|--------------------------|
--------------------------|--------------------------|
--------------------------|--------------------------|
--5--5--5--5--5--5--5--5--|--5--5--5--5--5--5--5--5--|


  E  E  E  E  E  E  E  E     E  E  E  E  E  E  E  E   
--------------------------|--------------------------|
--------------------------|--------------------------|
--------------------------|--------------------------|
--5--5--5--5--5--0--3--4--|--5--5--5--5--5--5--5--5--|


  E  E  E  E  E  E  E  E     E  E  E  E  E  E  E  E   
--------------------------|--------------------------|
--------------------------|--------------------------|
--------------------------|--------------------------|
--5--5--5--5--5--5--5--3--|--5--5--5--5--5--5--5--5--|


  E  E  E  E  E  E  E  E     E  E  E  E  E  E  E  E   
--------------------------|--------------------------|
--------------------------|--------------------------|
--------------------------|--------------------------|
--5--5--5--5--5--0--3--4--|--5--5--5--5--5--5--5--5--|


  E  E  E  E  E  E  E  E     E  E  E  E  E  E  E  E   
--------------------------|--------------------------|
--------------------------|--------------------------|
--------------------------|--------------------------|
--5--5--5--5--5--5--5--5--|--5--5--5--5--5--5--5--5--|


  E  E  E  E  E  E  E  E     E  E  E  E  E  E  E  E   
--------------------------|--------------------------|
--------------------------|--------------------------|
--------------------------|--------------------------|
--5--5--5--5--5--5--5--5--|--5--5--5--5--5--5--5--5--|


  E  E  E  E  E  E  E  E     E  E  E  E  E  E  E  E   
--------------------------|--------------------------|
--------------------------|--------------------------|
--------------------------|--------------------------|
--5--5--5--5--5--5--5--5--|--5--5--5--5--5--5--5--5--|


  E  E  E  E  E  E  E  E     H        E  E  E  E     H        E  E  E  E   
-----------------------7--|--5--------L-----9--7--|--L--------L-----9--5--|
-----------------5--7-----|--------------7--------|--------------7--------|
--------------7-----------|-----------------------|-----------------------|
--5--5--5--5--------------|-----------------------|-----------------------|


  H        E  E  E  E     H        E  E  E  E     H        E  E  E  E   
--L--------L-----------|--------------------7--|--5--------L-----9--7--|
-----------------5--7--|--L-----------5--7-----|--------------7--------|
--------------7--------|-----------7-----------|-----------------------|
-----------------------|-----------------------|-----------------------|


  H        E  E  E  E     H        E  E  E  E     H        E  E  E  E   
--L--------L-----9--5--|--L--------L-----------|--------------------7--|
--------------7--------|-----------------5--7--|--L-----------5--7-----|
-----------------------|--------------7--------|-----------7-----------|
-----------------------|-----------------------|-----------------------|


  E  E  E  E  E  E  E  E     E  E  E  E  E  E  E  E   
--5-----------------------|--------------------5-----|
-----7--7--7--5--7-----7--|--7--7--7--7--5--7-----7--|
--------------------------|--------------------------|
--------------------------|--------------------------|


  E  E  E  E  E  E  E  E     E  E  E  E  E  E  E  E   
--------------------------|--------------------------|
--L--7--7--7--5--7-----7--|--7--5--------------------|
--------------------------|--------7--6--5--3--------|
--------------------------|--------------------5--3--|


  E  E  E  E  E  E  E  E     E  E  E  E  E  E  E  E   
--------------------------|--------------------------|
--------------------------|--------------------5--7--|
-----------------3--------|--------------3--7--------|
--5--5--3--5--5-----5--3--|--5--5--3--5--------------|


  E  E  E  E  E  E  E  E     E  E  E  E  E  E  E  E   
--------------------------|--------------------------|
--7--7--7--7--5--7--------|--------------------------|
-----------------------5--|--7--7--7--5--7--5--3-----|
--------------------------|-----------------------3--|


  E  E  E  E  E  E  E  E     E  E  E  E  E  E  E  E   
--------------------------|--------------------------|
--------------------------|--------------------------|
-----------------3--------|-----------------3--------|
--5--5--5--5--5-----5--3--|--5--5--5--5--5-----5--3--|


  E  E  E  E  E  E  E  E     E  E  E  E  E  E  E  E   
--------------------------|--------------------------|
--------------------------|--------------------------|
-----------------3--------|-----------------3--------|
--5--5--5--5--5-----5--3--|--5--5--5--5--5-----5--3--|


  E  E  E  E  E  E  E  E     E  E  E  E  E  E  E  E   
--------------------------|--------------------------|
--------------------------|--------------------------|
-----------------3--------|-----------------3--------|
--5--5--5--5--5-----5--3--|--5--5--5--5--5-----5--3--|


  E  E  E  E  E  E  E  E     H        E  E  E  E     E  E  E  E  E  E  E  E   
--------------------------|-----------------------|--------------------------|
--------------------------|-----------------------|--------------------------|
--------------3-----------|-----------------------|--------------------------|
--5--5--3--5-----5--3--5--|--L--------5--0--3--4--|--5--5--5--5--5--5--5--5--|


  E  E  E  E  E  E  E  E     E  E  E  E  E  E  E  E   
--------------------------|--------------------------|
--------------------------|--------------------------|
-----------------3--------|--------------------------|
--5--5--5--5--5-----5--3--|--5--5--5--5--5--5--5--5--|


  E  E  E  E  E  E  E  E     E  E  E  E  E  E  E  E   
--------------------------|--------------------------|
--------------------------|--------------------------|
--------------------------|--------------------------|
--5--5--5--5--5--0--3--4--|--5--5--5--5--5--5--5--5--|


  E  E  E  E  E  E  E  E     E  E  E  E  E  E  E  E   
--------------------------|--------------------------|
--------------------------|-----------------------5--|
--------------------------|-----------------3--7-----|
--5--5--5--5--5--5--5--5--|--5--5--5--5--5-----------|


  E  E  E  E  E  E  E  E     E  E  E  E  E  E  E  E   
--------------------------|--------------------------|
--7--7--7--7--7--5--------|--------------------------|
--------------------7--5--|--------------------------|
--------------------------|--5--5--5--5--5--5--5--5--|


  E  E  E  E  E  E  E  E     E  E  E  E  E  E  E  E   
--------------------------|--------------------------|
--------------------------|-----------------------5--|
--------------------------|-----------------3--7-----|
--5--5--5--5--5--5--5--5--|--5--5--5--5--5-----------|


  E  E  E  E  E  E  E  E     E  E  E  E  E  E  E  E   
--------------------------|--------------------------|
--7--7--7--7--7--5--------|--------------------------|
--------------------7--5--|--------------------------|
--------------------------|--5--5--5--5--5--5--5--5--|


  E  E  E  E  E  E  E  E     E  E  E  E  E  E  E  E   
--------------------------|--------------------------|
--------------------------|-----------------------5--|
--------------------------|-----------------3--7-----|
--5--5--5--5--5--5--5--5--|--5--5--5--5--5-----------|


  E  E  E  E  E  E  E  E    
--------------------------||
--7--7--7--7--7--5--------||
--------------------7--5--||
--------------------------||




Duration Legend
---------------
W - whole
H - half
Q - quarter
E - 8th
S - 16th
T - 32nd
X - 64th
. - note dotted
|-n-|  - n-tuplets


Tablature Legend
----------------
L - tied note
x - dead note
g - grace note
(n) - ghost note
> - accentuded note
NH - natural harmonic
AH - artificial harmonic
TH - tapped harmonic
SH - semi harmonic
PH - pitch harmonic
h - hammer on
p - pull off
b - bend
br - bendRelease
pb - preBend
pbr - preBendRelease
brb - bendReleaseBend
\n/ - tremolo bar dip
\n - tremolo bar dive
-/n - tremolo bar Release up
/n\ - tremolo bar inverted dip
/n - tremolo bar return
-\n - tremolo bar Release down
S - shift slide
s - legato slide
/ -  slide into from below or out of upwards
\ -  slide into from above or out of downwards
~ - vibrato
W - wide vibrato
tr - trill
TP - tremolo picking
T - tapping
S - slap
P - pop
< - fade in
^ - brush up
v - brush down
comments
We did not receive enough feedback on this tab! Please rate:
print report bad tab
1 2 3 4 5
I want to post or [tab]
guest
You may want to rate the tab now too:
select rating
Please do not post tabs as comments. Select "correction" instead!