Oops, an error
Loading. Please wait.

Face The Day Tab

ver2
ver2

Whole song

Interactive

More versions @911Tabs.com
1,097 views 1 this week
1 commentread comment
1 2 3 4 5
excellent!
x 1
Autoscroll
+/-
esc
set tempo
stop
Contributor
Difficulty
intermediate
Hey! There's an official Ultimate Guitar app which is ideal
for learning songs when you're away from computer. Get the app
WARNING: You are trying to view
                                    content from Ultimate-Guitar.com
                                    in an unauthorized application,
                                    which is prohibited.

                                    Please use an official Ultimate
                                    Guitar Tabs application for iPhone,
                                    iPad or Android to access legitimate
                                    chords, guitar, bass, and drum tabs
                                    from Ultimate-Guitar.com database.

                                    Type "ultimate guitar tabs" in Apple
                                    App Store's or Android Market's
                                    search to find the application.
-----------------------------------------------------------------------------
                      Face the Day - Great White (GUITAR)
                       
-----------------------------------------------------------------------------
Tabbed by: Scotto10

Tuning: Standard

=============================================================================

Guitar - rhythm



     H         E  E  E  E     H.           E  E     H         E  E  E  E   
E||------------------------|---------------------|------------------------|
B||------------------------|---------------------|------------------------|
G||---------------------7--|--5---------------2--|--L------------------7--|
D||---------------5-----7--|--5---------------2--|--L------------5-----7--|
A||-----------/7-----0-----|---------------0-----|-----------/7-----0-----|
E||------------------------|---------------------|------------------------|


  H.           E  E     H         E  E  E  E     H.           E  E   
---------------------|------------------------|---------------------|
---------------------|------------------------|---------------------|
--5---------------2--|--L------------------7--|--5---------------5--|
--5---------------2--|--L------------5-----7--|--5---------------4--|
---------------0-----|-----------/7-----0-----|---------------0-----|
---------------------|------------------------|---------------------|


  H.           E  E     H.           E  E     H         E  E  E  E   
---------------------|---------------------|------------------------|
---------------------|---------------------|------------------------|
--L---------------5--|--L---------------2--|--L------------------7--|
--L---------------3--|--L---------------2--|--L------------5-----7--|
---------------0-----|---------------0-----|-----------/7-----0-----|
---------------------|---------------------|------------------------|


  H.           E  E     H         E  E  E  E     H.           E  E   
---------------------|------------------------|---------------------|
---------------------|------------------------|---------------------|
--5---------------2--|--L------------------7--|--5---------------2--|
--5---------------2--|--L------------5-----7--|--5---------------2--|
---------------0-----|-----------/7-----0-----|---------------0-----|
---------------------|------------------------|---------------------|


  H         E  E  E  E     H.           E  E     H.           E  E   
------------------------|---------------------|---------------------|
------------------------|---------------------|---------------------|
--L------------------7--|--5---------------5--|--L---------------5--|
--L------------5-----7--|--5---------------4--|--L---------------3--|
-----------/7-----0-----|---------------0-----|---------------0-----|
------------------------|---------------------|---------------------|


  H.           E  E     H         E  E  E  E     H.           E  E   
---------------------|------------------------|---------------------|
---------------------|------------------------|---------------------|
--L---------------2--|--L------------------7--|--5---------------2--|
--L---------------2--|--L------------5-----7--|--5---------------2--|
---------------0-----|-----------/7-----0-----|---------------0-----|
---------------------|------------------------|---------------------|


  H         E  E  E  E     H.           E  E     H         E  E  E  E   
------------------------|---------------------|------------------------|
------------------------|---------------------|------------------------|
--L------------------7--|--5---------------2--|--L------------------7--|
--L------------5-----7--|--5---------------2--|--L------------5-----7--|
-----------/7-----0-----|---------------0-----|-----------/7-----0-----|
------------------------|---------------------|------------------------|


  H.           E  E     H.           E  E     H.           E  E   
---------------------|---------------------|---------------------|
---------------------|---------------------|---------------------|
--5---------------5--|--L---------------5--|--L---------------2--|
--5---------------4--|--L---------------3--|--L---------------2--|
---------------0-----|---------------0-----|---------------0-----|
---------------------|---------------------|---------------------|


                                                       PM       PM     
  W                   H         E  E  E  E     Q    E  E  E  E  E  E   
-------------------|------------------------|-------------------------|
-------------------|------------------------|-------------------------|
--L----------------|--L------------------7--|--5----5-----5--5-----2--|
--L----------------|--L------------5-----7--|--5----5-----5--5-----2--|
-------------------|-----------/7-----0-----|----------0--------0-----|
-------------------|------------------------|-------------------------|


                  PM               PM       PM                       PM     
  H         E  E  E  E     Q    E  E  E  E  E  E     H         E  E  E  E   
------------------------|-------------------------|------------------------|
------------------------|-------------------------|------------------------|
--L------------------7--|--5----5-----5--5-----2--|--L------------------7--|
--L------------5-----7--|--5----5-----5--5-----2--|--L------------5-----7--|
-----------/7-----0-----|----------0--------0-----|-----------/7-----0-----|
------------------------|-------------------------|------------------------|


          PM       PM                       PM               PM       PM     
  Q    E  E  E  E  E  E     H         E  E  E  E     Q    E  E  E  E  E  E   
-------------------------|------------------------|----------------------5--|
-------------------------|------------------------|----------------------5--|
--5----5-----5--5-----2--|--L------------------7--|--5----5-----5--5--------|
--5----5-----5--5-----2--|--L------------5-----7--|--5----5-----5--5--------|
----------0--------0-----|-----------/7-----0-----|----------0--------0-----|
-------------------------|------------------------|-------------------------|


            PM PM PM PM            PM       PM                       PM     
   H        E  E  E  E     Q    E  E  E  E  E  E     H         E  E  E  E   
---L--------------------|-------------------------|------------------------|
---L--------------------|-------------------------|------------------------|
---------------------7--|--5----5-----5--5-----2--|--L------------------7--|
---------------5-----7--|--5----5-----5--5-----2--|--L------------5-----7--|
------------7-----0-----|----------0--------0-----|-----------/7-----0-----|
------------------------|-------------------------|------------------------|


          PM       PM                       PM               PM       PM     
  Q    E  E  E  E  E  E     H         E  E  E  E     Q    E  E  E  E  E  E   
-------------------------|------------------------|-------------------------|
-------------------------|------------------------|-------------------------|
--5----5-----5--5-----2--|--L------------------7--|--5----5-----5--5-----2--|
--5----5-----5--5-----2--|--L------------5-----7--|--5----5-----5--5-----2--|
----------0--------0-----|-----------/7-----0-----|----------0--------0-----|
-------------------------|------------------------|-------------------------|


                  PM               PM       PM                             
  H         E  E  E  E     Q    E  E  E  E  E  E     H        E  E  E  E   
------------------------|-------------------------|-----------------------|
------------------------|-------------------------|-----------------------|
--L------------------7--|--5----5-----5--5-----2--|--L-----------------7--|
--L------------5-----7--|--5----5-----5--5-----2--|--L-----------5-----7--|
-----------/7-----0-----|----------0--------0-----|-----------7-----0-----|
------------------------|-------------------------|-----------------------|


  H.           E  E     H.           E  E     H.           E  E   
---------------------|---------------------|---------------------|
---------------------|---------------------|---------------------|
--5---------------5--|--L---------------5--|--L---------------2--|
--5---------------4--|--L---------------3--|--L---------------2--|
---------------0-----|---------------0-----|---------------0-----|
---------------------|---------------------|---------------------|


                  PM                                                 
  H         E  E  E  E     H.           E  E     H.           E  E   
------------------------|---------------------|---------------------|
------------------------|---------------------|---------------------|
--L------------------7--|--5---------------5--|--L---------------5--|
--L------------5-----7--|--5---------------4--|--L---------------3--|
-----------/7-----0-----|---------------0-----|---------------0-----|
------------------------|---------------------|---------------------|


                                        PM               PM       PM     
  H.           E  E     H         E  E  E  E     Q    E  E  E  E  E  E   
---------------------|------------------------|-------------------------|
---------------------|------------------------|-------------------------|
--L---------------2--|--L------------------7--|--5----5-----5--5-----2--|
--L---------------2--|--L------------5-----7--|--5----5-----5--5-----2--|
---------------0-----|-----------/7-----0-----|----------0--------0-----|
---------------------|------------------------|-------------------------|


                  PM               PM       PM                       PM     
  H         E  E  E  E     Q    E  E  E  E  E  E     H         E  E  E  E   
------------------------|-------------------------|------------------------|
------------------------|-------------------------|------------------------|
--L------------------7--|--5----5-----5--5-----2--|--L------------------7--|
--L------------5-----7--|--5----5-----5--5-----2--|--L------------5-----7--|
-----------/7-----0-----|----------0--------0-----|-----------/7-----0-----|
------------------------|-------------------------|------------------------|


          PM       PM                       PM               PM       PM     
  Q    E  E  E  E  E  E     H         E  E  E  E     Q    E  E  E  E  E  E   
-------------------------|------------------------|----------------------5--|
-------------------------|------------------------|----------------------5--|
--5----5-----5--5-----2--|--L------------------7--|--5----5-----5--5-----2--|
--5----5-----5--5-----2--|--L------------5-----7--|--5----5-----5--5--------|
----------0--------0-----|-----------/7-----0-----|----------0--------0-----|
-------------------------|------------------------|-------------------------|


                  PM               PM       PM                       PM     
  H         E  E  E  E     Q    E  E  E  E  E  E     H         E  E  E  E   
--L---------------------|-------------------------|------------------------|
--L---------------------|-------------------------|------------------------|
--L------------------7--|--5----5-----5--5-----2--|--L------------------7--|
---------------5-----7--|--5----5-----5--5-----2--|--L------------5-----7--|
-----------/7-----0-----|----------0--------0-----|-----------/7-----0-----|
------------------------|-------------------------|------------------------|


          PM       PM                PM PM PM PM            PM       PM     
  Q    E  E  E  E  E  E     H        E  E  E  E     Q    E  E  E  E  E  E   
-------------------------|-----------------------|-------------------------|
-------------------------|-----------------------|-------------------------|
--5----5-----5--5-----2--|--L-----------------7--|--5----5-----5--5-----2--|
--5----5-----5--5-----2--|--L-----------5-----7--|--5----5-----5--5-----2--|
----------0--------0-----|-----------7-----0-----|----------0--------0-----|
-------------------------|-----------------------|-------------------------|


           PM PM PM PM            PM       PM            PM PM PM PM PM     
  H        E  E  E  E     Q    E  E  E  E  E  E     Q    E  E  E  E  E  E   
-----------------------|-------------------------|-------------------------|
-----------------------|-------------------------|-------------------------|
--L-----------------7--|--5----5-----5--5-----2--|--L----------------------|
--L-----------5-----7--|--5----5-----5--5-----2--|--L----2--2--2--2--2--5--|
-----------7-----0-----|----------0--------0-----|-------0--0--0--0--0--3--|
-----------------------|-------------------------|-------------------------|


       PM PM PM PM PM PM    PM PM PM PM PM PM PM            PM PM PM PM PM PM  
  Q    E  E  E  E  E  E     E  E  E  E  E  E  E  E     Q    E  E  E  E  E  E   
-------------------------|--------------------------|-------------------------|
-------------------------|--------------------------|-------------------------|
-------------------------|--------------------------|-------------------------|
--7----7--7--7--7--7--7--|--7--7--7--7--7--7--7--5--|--7----7--7--7--7--7--7--|
--5----5--5--5--5--5--5--|--5--5--5--5--5--5--5--3--|--5----5--5--5--5--5--5--|
-------------------------|--------------------------|-------------------------|


  PM PM PM PM PM                  PM PM PM PM PM PM    PM PM PM PM PM PM PM     
  E  E  E  E  E  E  E  E     Q    E  E  E  E  E  E     E  E  E  E  E  E  E  E   
--------------------------|-------------------------|--------------------------|
--------------------------|-------------------------|--------------------------|
--------------------------|-------------------------|--------------------------|
--7--7--7--7--7--5-----5--|--7----7--7--7--7--7--7--|--7--7--7--7--7--7--7--5--|
--5--5--5--5--5--3-----3--|--5----5--5--5--5--5--5--|--5--5--5--5--5--5--5--3--|
--------------------------|-------------------------|--------------------------|


       PM PM PM PM PM PM                                       PM     
  Q    E  E  E  E  E  E     Q    Q    H           H.           E  E   
-------------------------|---------------------|---------------------|
-------------------------|---------------------|---------------------|
-------------------------|---------------------|--5---------------2--|
--7----7--7--7--7--7--7--|--4------------------|--5---------------2--|
--5----5--5--5--5--5--5--|--2----2----L--------|---------------0-----|
-------------------------|-------0----L--------|---------------------|


                  PM               PM       PM                PM PM PM PM  
  H         E  E  E  E     Q    E  E  E  E  E  E     H        E  E  E  E   
------------------------|-------------------------|-----------------------|
------------------------|-------------------------|-----------------------|
--L------------------7--|--5----5-----5--5-----2--|--L-----------------7--|
--L------------5-----7--|--5----5-----5--5-----2--|--L-----------5-----7--|
-----------/7-----0-----|----------0--------0-----|-----------7-----0-----|
------------------------|-------------------------|-----------------------|


  H.           E  E     H.           E  E     H.           E  E   
---------------------|---------------------|---------------------|
---------------------|---------------------|---------------------|
--5---------------5--|--L---------------5--|--L---------------2--|
--5---------------4--|--L---------------3--|--L---------------2--|
---------------0-----|---------------0-----|---------------0-----|
---------------------|---------------------|---------------------|


  H        E  E  E  E     H.           E  E     H         E  E  E  E   
-----------------------|---------------------|------------------------|
-----------------------|---------------------|------------------------|
--L-----------------7--|--5---------------2--|--L------------------7--|
--L-----------5-----7--|--5---------------2--|--L------------5-----7--|
-----------7-----0-----|---------------0-----|-----------/7-----0-----|
-----------------------|---------------------|------------------------|


  H.           E  E     H         E  E  E  E     H.           E  E   
---------------------|------------------------|---------------------|
---------------------|------------------------|---------------------|
--5---------------2--|--L------------------7--|--5---------------5--|
--5---------------2--|--L------------5-----7--|--5---------------4--|
---------------0-----|-----------/7-----0-----|---------------0-----|
---------------------|------------------------|---------------------|


  H.           E  E     H.           E  E     H         E  E  E  E   
---------------------|---------------------|------------------------|
---------------------|---------------------|------------------------|
--L---------------5--|--L---------------2--|--L------------------7--|
--L---------------3--|--L---------------2--|--L------------5-----7--|
---------------0-----|---------------0-----|-----------/7-----0-----|
---------------------|---------------------|------------------------|


  H.           E  E     H         E  E  E  E     H.           E  E   
---------------------|------------------------|---------------------|
---------------------|------------------------|---------------------|
--5---------------2--|--L------------------7--|--5---------------2--|
--5---------------2--|--L------------5-----7--|--5---------------2--|
---------------0-----|-----------/7-----0-----|---------------0-----|
---------------------|------------------------|---------------------|


  H         E  E  E  E     H.           E  E     H.           E  E   
------------------------|---------------------|---------------------|
------------------------|---------------------|---------------------|
--L------------------7--|--5---------------5--|--L---------------5--|
--L------------5-----7--|--5---------------4--|--L---------------3--|
-----------/7-----0-----|---------------0-----|---------------0-----|
------------------------|---------------------|---------------------|


                                                 PM PM PM PM PM PM PM     
  H.           E  E     E  E  E  E  E  Q.        E  E  E  E  E  E  E  E   
---------------------|------------------------|--------------------------|
---------------------|------------------------|--------------------------|
--L------------------|------------------------|--------------------------|
--L---------------7--|--L--5------------------|--2--2--2--2--2--2--2--5--|
---------------0-----|--------7--6--5--3------|--0--0--0--0--0--0--0--3--|
---------------------|------------------------|--------------------------|


       PM PM PM PM PM PM    PM PM PM PM PM PM PM            PM PM PM PM PM PM  
  Q    E  E  E  E  E  E     E  E  E  E  E  E  E  E     Q    E  E  E  E  E  E   
-------------------------|--------------------------|-------------------------|
-------------------------|--------------------------|-------------------------|
-------------------------|--------------------------|-------------------------|
--7----7--7--7--7--7--7--|--7--7--7--7--7--7--7--5--|--7----7--7--7--7--7--7--|
--5----5--5--5--5--5--5--|--5--5--5--5--5--5--5--3--|--5----5--5--5--5--5--5--|
-------------------------|--------------------------|-------------------------|


  PM PM PM PM PM PM PM            PM PM PM PM PM PM    PM PM PM PM PM PM PM     
  E  E  E  E  E  E  E  E     Q    E  E  E  E  E  E     E  E  E  E  E  E  E  E   
--------------------------|-------------------------|--------------------------|
--------------------------|-------------------------|--------------------------|
--------------------------|-------------------------|--------------------------|
--7--7--7--7--7--7--7--5--|--7----7--7--7--7--7--7--|--7--7--7--7--7--7--7--5--|
--5--5--5--5--5--5--5--3--|--5----5--5--5--5--5--5--|--5--5--5--5--5--5--5--3--|
--------------------------|-------------------------|--------------------------|


       PM PM PM PM PM PM                                  PM       PM     
  Q    E  E  E  E  E  E     Q    Q    H           Q    E  E  E  E  E  E   
-------------------------|---------------------|-------------------------|
-------------------------|---------------------|-------------------------|
-------------------------|---------------------|--5----5-----5--5-----2--|
--7----7--7--7--7--7--7--|--4------------------|--5----5-----5--5-----2--|
--5----5--5--5--5--5--5--|--2----2----L--------|----------0--------0-----|
-------------------------|-------0----L--------|-------------------------|


                  PM               PM       PM                       PM     
  H         E  E  E  E     Q    E  E  E  E  E  E     H         E  E  E  E   
------------------------|-------------------------|------------------------|
------------------------|-------------------------|------------------------|
--L------------------7--|--5----5-----5--5-----2--|--L------------------7--|
--L------------5-----7--|--5----5-----5--5-----2--|--L------------5-----7--|
-----------/7-----0-----|----------0--------0-----|-----------/7-----0-----|
------------------------|-------------------------|------------------------|


          PM       PM                       PM               PM       PM     
  Q    E  E  E  E  E  E     H         E  E  E  E     Q    E  E  E  E  E  E   
-------------------------|------------------------|----------------------5--|
-------------------------|------------------------|----------------------5--|
--5----5-----5--5-----2--|--L------------------7--|--5----5-----5--5-----2--|
--5----5-----5--5-----2--|--L------------5-----7--|--5----5-----5--5--------|
----------0--------0-----|-----------/7-----0-----|----------0--------0-----|
-------------------------|------------------------|-------------------------|


            PM PM PM PM            PM       PM                       PM     
   H        E  E  E  E     Q    E  E  E  E  E  E     H         E  E  E  E   
---L--------------------|-------------------------|------------------------|
---L--------------------|-------------------------|------------------------|
---L-----------------7--|--5----5-----5--5-----2--|--L------------------7--|
---------------5-----7--|--5----5-----5--5-----2--|--L------------5-----7--|
------------7-----0-----|----------0--------0-----|-----------/7-----0-----|
------------------------|-------------------------|------------------------|


          PM       PM                       PM               PM       PM     
  Q    E  E  E  E  E  E     H         E  E  E  E     Q    E  E  E  E  E  E   
-------------------------|------------------------|-------------------------|
-------------------------|------------------------|-------------------------|
--5----5-----5--5-----2--|--L------------------7--|--5----5-----5--5-----2--|
--5----5-----5--5-----2--|--L------------5-----7--|--5----5-----5--5-----2--|
----------0--------0-----|-----------/7-----0-----|----------0--------0-----|
-------------------------|------------------------|-------------------------|


                                   PM       PM                PM PM PM PM  
  H         E  E  E  E     Q    E  E  E  E  E  E     H        E  E  E  E   
------------------------|-------------------------|-----------------------|
------------------------|-------------------------|-----------------------|
--L------------------7--|--5----5-----5--5-----2--|--L-----------------7--|
--L------------5-----7--|--5----5-----5--5-----2--|--L-----------5-----7--|
-----------/7-----0-----|----------0--------0-----|-----------7-----0-----|
------------------------|-------------------------|-----------------------|


  H.           E  E     H.           E  E     H.           E  E   
---------------------|---------------------|---------------------|
---------------------|---------------------|---------------------|
--5---------------5--|--L---------------5--|--L---------------2--|
--5---------------4--|--L---------------3--|--L---------------2--|
---------------0-----|---------------0-----|---------------0-----|
---------------------|---------------------|---------------------|


  H         E  E  E  E     H.           E  E     H.           E  E   
------------------------|---------------------|---------------------|
------------------------|---------------------|---------------------|
--L------------------7--|--5---------------5--|--L---------------5--|
--L------------5-----7--|--5---------------4--|--L---------------3--|
-----------/7-----0-----|---------------0-----|---------------0-----|
------------------------|---------------------|---------------------|


                                             PM PM PM PM PM PM PM PM  
  H.           E  E     H        H           E  E  E  E  E  E  E  E   
---------------------|--------------------|--------------------------|
---------------------|--------------------|--------------------------|
--L---------------2--|--L-----------------|--5-----5-----5--5-----5--|
--L---------------2--|--L-----------------|--5-----5-----5--5-----4--|
---------------0-----|--------------------|-----0-----0--------0-----|
---------------------|--------------------|--------------------------|


  PM PM PM PM PM PM PM PM    PM PM PM PM PM PM PM PM  
  E  E  E  E  E  E  E  E     E  E  E  E  E  E  E  E   
--------------------------|--------------------------|
--------------------------|--------------------------|
--------5-----5--5-----5--|--------5-----5--5-----2--|
--------4-----4--4-----3--|--------3-----3--3-----2--|
--0--0-----0--------0-----|--0--0-----0--------0-----|
--------------------------|--------------------------|


  PM PM PM PM PM PM PM PM    PM PM PM PM PM PM PM PM  
  E  E  E  E  E  E  E  E     E  E  E  E  E  E  E  E   
--------------------------|--------------------------|
--------------------------|--------------------------|
--------2-----2--2-----5--|--------5-----5--5-----5--|
--------2-----2--2-----5--|--------5-----5--5-----4--|
--0--0-----0--------0-----|--0--0-----0--------0-----|
--------------------------|--------------------------|


  PM PM PM PM PM PM PM PM    PM PM PM PM PM PM PM PM  
  E  E  E  E  E  E  E  E     E  E  E  E  E  E  E  E   
--------------------------|--------------------------|
--------------------------|--------------------------|
--------5-----5--5-----5--|--------5-----5--5-----2--|
--------4-----4--4-----3--|--------3-----3--3-----2--|
--0--0-----0--------0-----|--0--0-----0--------0-----|
--------------------------|--------------------------|


  PM PM PM PM PM PM PM PM    PM PM PM PM PM PM PM PM  
  E  E  E  E  E  E  E  E     E  E  E  E  E  E  E  E   
--------------------------|--------------------------|
--------------------------|--------------------------|
--------2-----2--2-----5--|--------5-----5--5-----5--|
--------2-----2--2-----5--|--------5-----5--5-----4--|
--0--0-----0--------0-----|--0--0-----0--------0-----|
--------------------------|--------------------------|


  PM PM PM PM PM PM PM PM    PM PM PM PM PM PM PM PM  
  E  E  E  E  E  E  E  E     E  E  E  E  E  E  E  E   
--------------------------|--------------------------|
--------------------------|--------------------------|
--------5-----5--5-----5--|--------5-----5--5-----2--|
--------4-----4--4-----3--|--------3-----3--3-----2--|
--0--0-----0--------0-----|--0--0-----0--------0-----|
--------------------------|--------------------------|


  PM PM PM PM PM PM PM PM    PM PM PM PM PM PM PM PM  
  E  E  E  E  E  E  E  E     E  E  E  E  E  E  E  E   
--------------------------|--------------------------|
--------------------------|--------------------------|
-----------------------5--|--------5-----5--5-----5--|
--2--2--2--2--2--2--2--5--|--------5-----5--5-----4--|
--0--0--0--0--0--0--0-----|--0--0-----0--------0-----|
--------------------------|--------------------------|


  PM PM PM PM PM PM PM PM    PM PM PM PM PM PM PM                               
  E  E  E  E  E  E  E  E     E  E  E  E  E  E  E  E     Q     Q     Q     Q     
--------------------------|--------------------------|-------------------------|
--------------------------|--------------------------|-------------------------|
--------5-----5--5-----5--|--------5-----5--5-----2--|--L----------------------|
--------4-----4--4-----3--|--------3-----3--3-----2--|--L----------------------|
--0--0-----0--------0-----|--0--0-----0--------0-----|--------x\----x\---------|
--------------------------|--------------------------|--------------------3----|


          PM       PM               PM       PM               PM       PM     
  Q    E  E  E  E  E  E     Q    E  E  E  E  E  E     Q    E  E  E  E  E  E   
-------------------------|-------------------------|-------------------------|
-------------------------|-------------------------|-------------------------|
--5----5-----5--5-----5--|--L----5-----5--5-----5--|--L----5-----5--5-----2--|
--5----5-----5--5-----4--|--L----4-----4--4-----3--|--L----3-----3--3-----2--|
----------0--------0-----|----------0--------0-----|----------0--------0-----|
-------------------------|-------------------------|-------------------------|


          PM          PM            PM       PM               PM       PM     
  Q    E  E  E  E  E  E     Q    E  E  E  E  E  E     Q    E  E  E  E  E  E   
-------------------------|-------------------------|-------------------------|
-------------------------|-------------------------|-------------------------|
--L----2-----2--2--2-----|--5----5-----5--5-----5--|--L----5-----5--5-----5--|
--L----2-----2--2--2-----|--5----5-----5--5-----4--|--L----4-----4--4-----3--|
----------0-----------0--|----------0--------0-----|----------0--------0-----|
-------------------------|-------------------------|-------------------------|


          PM       PM               PM          PM            PM       PM     
  Q    E  E  E  E  E  E     Q    E  E  E  E  E  E     Q    E  E  E  E  E  E   
-------------------------|-------------------------|-------------------------|
-------------------------|-------------------------|-------------------------|
--L----5-----5--5-----2--|--L----2-----2--2--2-----|--5----5-----5--5-----5--|
--L----3-----3--3-----2--|--L----2-----2--2--2-----|--5----5-----5--5-----4--|
----------0--------0-----|----------0-----------0--|----------0--------0-----|
-------------------------|-------------------------|-------------------------|


          PM       PM               PM       PM               PM          PM  
  Q    E  E  E  E  E  E     Q    E  E  E  E  E  E     Q    E  E  E  E  E  E   
-------------------------|-------------------------|-------------------------|
-------------------------|-------------------------|-------------------------|
--L----5-----5--5-----5--|--L----5-----5--5-----2--|--L----2-----2--2--2-----|
--L----4-----4--4-----3--|--L----3-----3--3-----2--|--L----2-----2--2--2-----|
----------0--------0-----|----------0--------0-----|----------0-----------0--|
-------------------------|-------------------------|-------------------------|


          PM       PM               PM       PM               PM       PM     
  Q    E  E  E  E  E  E     Q    E  E  E  E  E  E     Q    E  E  E  E  E  E   
-------------------------|-------------------------|-------------------------|
-------------------------|-------------------------|-------------------------|
--5----5-----5--5-----5--|--L----5-----5--5-----5--|--L----5-----5--5-----2--|
--5----5-----5--5-----4--|--L----4-----4--4-----3--|--L----3-----3--3-----2--|
----------0--------0-----|----------0--------0-----|----------0--------0-----|
-------------------------|-------------------------|-------------------------|


          PM          PM   
  Q    E  E  E  E  E  E    
-------------------------||
-------------------------||
--L----2-----2--2--2-----||
--L----2-----2--2--2-----||
----------0-----------0--||
-------------------------||




===========================================================================
===========================================================================


Guitar   solo






  H          Q       E  E     H        Q     E  E   
---------------------------|-----------------------|
---------------------------|-----------------------|
--7pb--------Lpbr----L-----|-----------------------|
------------------------7--|--L--------L\----------|
---------------------------|-----------------x--x--|
---------------------------|-----------------------|


  H          E     E  E  E      W                    W                   
-----------------------------|--------------------|---------------------|
-------------------------8b--|--L~----------------|--8pb----------------|
--7pb--------Lpbr--L--5------|--------------------|---------------------|
-----------------------------|--------------------|---------------------|
-----------------------------|--------------------|---------------------|
-----------------------------|--------------------|---------------------|


                                          PM PM                           
  H          E  E    E  E     H        E  E  E  E     H         H         
---------------------------|-----------------------|---------------------|
--Lpb--------L--8br--L-----|-----------------------|---------------------|
------------------------5--|--L--------L-----------|---------------------|
---------------------------|--------------7--5--7--|--L\-----------------|
---------------------------|-----------------------|---------------------|
---------------------------|-----------------------|---------------------|


  PM PM PM   PM PM    PM    PM PM PM   PM PM    PM    PM PM PM   PM PM    PM  
  E  E  Q    E  E  E  E     E  E  Q    E  E  E  E     E  E  Q    E  E  E  E   
-------------------------|-------------------------|-------------------------|
-------------------------|-------------------------|-------------------------|
-------------------------|-------------------------|-------------------------|
--------7----5--7-----7--|--------7----5--7-----7--|--------7----5--7-----7--|
--0--0-------------------|--0--0-------------------|--0--0-------------------|
-------------------------|-------------------------|-------------------------|


  PM PM PM   PM PM    PM    PM PM PM   PM PM    PM    PM PM PM   PM PM    PM  
  E  E  Q    E  E  E  E     E  E  Q    E  E  E  E     E  E  Q    E  E  E  E   
-------------------------|-------------------------|-------------------------|
-------------------------|-------------------------|-------------------------|
-------------------------|-------------------------|-------------5-----------|
--------7----5--7-----7--|--------7----5--7-----7--|--------7-------7-----5--|
--0--0-------------------|--0--0-------------------|--0--0-------------------|
-------------------------|-------------------------|-------------------------|


  PM PM PM   PM PM                                     PM PM PM PM PM PM PM     
  E  E  Q    E  E  E   E      E  E  E  E  E  Q.        E  E  E  E  E  E  E  E   
--------------------------|-------------------------|--------------------------|
----------------------10--|---L--8------------------|--------------------------|
--------------------------|---------9--8--7--5------|--------------------------|
--------7----5--7---------|-------------------------|--2--2--2--2--2--2--2--5--|
--0--0--------------------|-------------------------|--0--0--0--0--0--0--0--3--|
--------------------------|-------------------------|--------------------------|


   E    Q     E    Q        S  S  S  S     Q      E   E   Q     S    S   E   
------------------------------10-------|-------------10---L-----------------|
--13b---L----13b---L----13g13----13-10-|--13b-----L------------13br--Lp-10--|
---------------------------------------|------------------------------------|
---------------------------------------|------------------------------------|
---------------------------------------|------------------------------------|
---------------------------------------|------------------------------------|


                              T           T           T           T           T 
   |-------5-------|  |---6---|   |---6---|   |---6---|   |---6---|   |---6---| 
   S   S   S   S   S  S   S   S   S   S   S   S   S   S   S   S   S   S   S   S 
--------------------------------------------------------------------------------
--10h-13p-10h-13p-10-10h-13h-15p-10h-13h-15p-10h-13h-15p-10h-13h-15p-10h-13h-15p
--------------------------------------------------------------------------------
--------------------------------------------------------------------------------
--------------------------------------------------------------------------------
--------------------------------------------------------------------------------


           T           T           T                       
   |---6---|   |---6---|   |---3---|                       
   S   S   S   S   S   S   S   S   S   S  S  Q      E  E   
----------------------------------------------------------|
--10h-13h-15p-10h-13h-15p-10h-13h-15p-10------------------|
-----------------------------------------12-10b-----L-----|
----------------------------------------------------------|
----------------------------------------------------------|
----------------------------------------------------------|


   E   S  S  E   E   Q.      S  S     E   S  S  E   E   Q     Q      
----------------------------------|---------------------------------|
----------------------------------|---------------------------------|
--10---x-10--x--10---L------------|--10---x-10--L-------------------|
--10---x-10--x--10---L------12-12-|--10---x-10--L--12---L----12\----|
----------------------------12-12-|---------------------------------|
----------------------------------|---------------------------------|


   E    E   E   E    Q     Q        E   E  E   E  E   E  E   E   
---------------------------------|------------------------------|
-----------13--------------------|------5------5------5------5--|
--12b---L------12b---L-----x\----|--7b-----7b-----7b-----7b-----|
---------------------------------|------------------------------|
---------------------------------|------------------------------|
---------------------------------|------------------------------|






Duration Legend
---------------
W - whole
H - half
Q - quarter
E - 8th
S - 16th
T - 32nd
X - 64th
. - note dotted
|-n-|  - n-tuplets


Tablature Legend
----------------
L - tied note
x - dead note
g - grace note
(n) - ghost note
> - accentuded note
NH - natural harmonic
AH - artificial harmonic
TH - tapped harmonic
SH - semi harmonic
PH - pitch harmonic
h - hammer on
p - pull off
b - bend
br - bendRelease
pb - preBend
pbr - preBendRelease
brb - bendReleaseBend
\n/ - tremolo bar dip
\n - tremolo bar dive
-/n - tremolo bar Release up
/n\ - tremolo bar inverted dip
/n - tremolo bar return
-\n - tremolo bar Release down
S - shift slide
s - legato slide
/ -  slide into from below or out of upwards
\ -  slide into from above or out of downwards
~ - vibrato
W - wide vibrato
tr - trill
TP - tremolo picking
T - tapping
S - slap
P - pop
< - fade in
^ - brush up
v - brush down
comments
We did not receive enough feedback on this tab! Please rate:
print report bad tab
1 2 3 4 5
1 comment total.
0 reply
AaronK72 wrote on January 25 2014, 04:11 pm

Great song.Thanks for tabbing this one!

I want to post or [tab]
guest
You may want to rate the tab now too:
select rating
Please do not post tabs as comments. Select "correction" instead!