Oops, an error
Loading. Please wait.

Fast Road Tab

ver2
ver2

Whole song

Interactive

More versions @911Tabs.com
61 views 1 this week
no commentswrite comment
1 2 3 4 5
please rate
Autoscroll
+/-
esc
set tempo
stop
Contributor
Difficulty
advanced
WARNING: You are trying to view
                                    content from Ultimate-Guitar.com
                                    in an unauthorized application,
                                    which is prohibited.

                                    Please use an official Ultimate
                                    Guitar Tabs application for iPhone,
                                    iPad or Android to access legitimate
                                    chords, guitar, bass, and drum tabs
                                    from Ultimate-Guitar.com database.

                                    Type "ultimate guitar tabs" in Apple
                                    App Store's or Android Market's
                                    search to find the application.
-----------------------------------------------------------------------------

                   Fast Road - Great White (GUITAR)
                       
-----------------------------------------------------------------------------
Tabbed by: Scotto10

Tuning: Standard

=============================================================================



Guitar 



E||----|----|----|----|----|----|-------|-------|-------|-------|-------|
B||----|----|----|----|----|----|-------|-------|-------|-------|-------|
G||----|----|----|----|----|----|-------|-------|-------|-------|-------|
D||----|----|----|----|----|----|-------|-------|-------|-------|-------|
A||----|----|----|----|----|----|-------|-------|-------|-------|-------|
E||----|----|----|----|----|----|-------|-------|-------|-------|-------|


                                                  E  Q.     H         
-------|-------|-------|-------|-------|-------|---------------------|
-------|-------|-------|-------|-------|-------|--8------------------|
-------|-------|-------|-------|-------|-------|--7------------------|
-------|-------|-------|-------|-------|-------|--5------------------|
-------|-------|-------|-------|-------|-------|--5------------------|
-------|-------|-------|-------|-------|-------|---------------------|


  Q.     Q.     Q       H.           E  E     Q.     Q.     Q     
---------------------|---------------------|---------------------|
---------------------|---------------------|---------------------|
---------5------7----|--L------------L--x--|--4------5------4----|
---------5------7----|--L------------L--x--|--5------5------5----|
--0------------------|---------------------|---------------------|
---------------------|---------------------|---------------------|


  H.           E  E     Q.     Q.     Q       H.            E  E   
---------------------|---------------------|----------------------|
---------------------|---------------------|----------------------|
------------------x--|---------5------7----|--7~------------L--x--|
------------------x--|---------5------7----|--7~------------L--x--|
--0------------L-----|--0------------------|----------------------|
---------------------|---------------------|----------------------|


  W                   W                   Q.     Q.     Q     
-------------------|-------------------|---------------------|
--8----------------|-------------------|---------------------|
--7----------------|--7----------------|---------5------7----|
--5----------------|--7----------------|---------5------7----|
-------------------|--5----------------|--0------------------|
-------------------|-------------------|---------------------|


  H.           E  E     Q.     Q.     Q       H.           E  E   
---------------------|---------------------|---------------------|
---------------------|---------------------|---------------------|
--L------------L--x--|--4------5------4----|------------------x--|
--L------------L--x--|--5------5------5----|------------------x--|
---------------------|---------------------|--0------------L-----|
---------------------|---------------------|---------------------|


  Q.     Q.     Q       H.            E  E      W                 
---------------------|----------------------|--------------------|
---------------------|----------------------|--------------------|
---------5------7----|--7~------------L--x--|--12----------------|
---------5------7----|--7~------------L--x--|--12----------------|
--0------------------|----------------------|--------------------|
---------------------|----------------------|--------------------|


  W                   Q    E  Q    E  Q       H.           E  E   
-------------------|-----------------------|---------------------|
-------------------|-----------------------|---------------------|
--7----------------|--0-------2-------5----|--L------------L-----|
--7----------------|--0-------2-------5----|--L------------L-----|
-------------------|-----------------------|---------------------|
-------------------|-----------------------|---------------------|


  Q    E  Q    E  Q       H.           E  E     Q    E  Q    E  Q     
-----------------------|---------------------|-----------------------|
-----------------------|---------------------|-----------------------|
--0-------2-------2----|--L------------L-----|--0-------2-------5----|
--0-------2-------2----|--L------------L-----|--0-------2-------5----|
-----------------------|---------------------|-----------------------|
-----------------------|---------------------|-----------------------|


  H.           E  E     W                   H        H         
---------------------|-------------------|--------------------|
---------------------|-------------------|--------------------|
--L------------L-----|--7----------------|--7--------7--------|
--L------------L-----|--5----------------|--4--------5--------|
---------------------|-------------------|--------------------|
---------------------|-------------------|--------------------|


  Q    E  Q    E  Q       H        E  E   E  E     Q    E  Q    E  Q     
-----------------------|------------------------|-----------------------|
-----------------------|------------------------|-----------------------|
--0-------2-------5----|--L--------L--5p--2-----|--0-------2-------2----|
--0-------2-------5----|--L--------L--5p--2-----|--0-------2-------2----|
-----------------------|------------------------|-----------------------|
-----------------------|------------------------|-----------------------|


  H.           E  E     Q    E  Q    E  Q       H.           E  E   
---------------------|-----------------------|---------------------|
---------------------|-----------------------|---------------------|
--L------------L-----|--0-------2-------5----|--L------------L-----|
--L------------L-----|--0-------2-------5----|--L------------L-----|
---------------------|-----------------------|------------------0--|
---------------------|-----------------------|---------------------|


  W                   W                   Q.     Q.     Q     
-------------------|-------------------|---------------------|
-------------------|-------------------|--5------3-----------|
--7----------------|--7----------------|--4------2-----------|
--5----------------|--4----------------|---------------------|
-------------------|-------------------|----------------2----|
-------------------|-------------------|---------------------|


       PM PM PM PM PM PM                               PM PM PM PM PM PM  
  Q    E  E  E  E  E  E     Q.     Q.     Q       Q    E  E  E  E  E  E   
-------------------------|---------------------|-------------------------|
-------------------------|--5------3-----------|-------------------------|
-------------------------|--4------2-----------|-------------------------|
-------------------------|---------------------|-------------------------|
--L----2--2--2--2--2--2--|----------------2----|--L----2--2--2--2--2--2--|
-------------------------|---------------------|-------------------------|


  Q.     Q.     Q       H        E    Q.         Q.     Q.     Q     
---------------------|------------------------|---------------------|
--6------6-----------|------------------------|---------------------|
--5------5-----------|------------------------|---------------------|
---------------------|------------------------|---------------------|
----------------5----|--L--------1s--14\------|--5------3------2----|
---------------------|------------------------|---------------------|


  Q.     Q.     Q       Q    E  Q    E  Q       H.           E  E   
---------------------|-----------------------|---------------------|
---------------------|-----------------------|---------------------|
---------------------|--0-------2-------5----|--L------------L-----|
---------------------|--0-------2-------5----|--L------------L-----|
--2------------------|-----------------------|---------------------|
---------3------3----|-----------------------|---------------------|


  Q    E  Q    E  Q       H.           E  E     Q    E  Q    E  Q     
-----------------------|---------------------|-----------------------|
-----------------------|---------------------|-----------------------|
--0-------2-------2----|--L------------L-----|--0-------2-------5----|
--0-------2-------2----|--L------------L-----|--0-------2-------5----|
-----------------------|---------------------|-----------------------|
-----------------------|---------------------|-----------------------|


                                                             PM PM  
  H.           E  E     Q    E  Q    E  Q       H.           E  E   
---------------------|-----------------------|---------------------|
---------------------|-----------------------|---------------------|
--L------------L-----|--0-------2-------2----|--L------------------|
--L------------L-----|--0-------2-------2----|--L------------------|
---------------------|-----------------------|---------------0--0--|
---------------------|-----------------------|---------------------|


                                  PM PM PM PM                          
  Q    E  Q.     Q       H        E  E  E  E      Q    E  Q.     Q     
----------------------|-----------------------|-----------------------|
--8-------8------5----|--L--------------------|--10-------8------5----|
--7-------7------4----|--L--------------------|---9-------7------4----|
----------------------|-----------------------|-----------------------|
----------------------|-----------------------|-----------------------|
----------------------|-----------0--0--0--0--|-----------------------|


           PM PM PM PM                                                
  H        E  E  E  E     Q    E  Q.     Q       Q    H        E  E   
-----------------------|-----------------3----|--L----2--------3-----|
--L--------------------|--3-------3------3----|--L----3--------3-----|
--L--------------------|--2-------2------2----|--L----2--------2-----|
-----------------------|----------------------|----------------------|
-----------------------|----------------------|----------------------|
-----------0--0--0--0--|----------------------|----------------------|


  E  H        Q.        W                   Q.     Q.     Q     
---------------------|-------------------|---------------------|
---------------------|-------------------|---------------------|
--5------------------|-------------------|---------5------7----|
--5------------------|-------------------|---------5------7----|
--3------------------|-------------------|--0------------------|
---------------------|-------------------|---------------------|


  H.           E  E     Q.     Q.     Q       H.           E  E   
---------------------|---------------------|---------------------|
---------------------|---------------------|---------------------|
--L------------L--x--|--4------5------4----|------------------x--|
--L------------L--x--|--5------5------5----|------------------x--|
---------------------|---------------------|--0------------L-----|
---------------------|---------------------|---------------------|


  Q.     Q.     Q       H.            E  E     W                 
---------------------|----------------------|-------------------|
---------------------|----------------------|--8----------------|
---------5------7----|--7~------------L--x--|--7----------------|
---------5------7----|--7~------------L--x--|--5----------------|
--0------------------|----------------------|-------------------|
---------------------|----------------------|-------------------|


  W                   Q    E  Q    E  Q       H.           E  E   
-------------------|-----------------------|---------------------|
-------------------|-----------------------|---------------------|
--7----------------|--0-------2-------5----|--L------------L-----|
--7----------------|--0-------2-------5----|--L------------L-----|
--5----------------|-----------------------|---------------------|
-------------------|-----------------------|---------------------|


  Q    E  Q    E  Q       H.           E  E     Q    E  Q    E  Q     
-----------------------|---------------------|-----------------------|
-----------------------|---------------------|-----------------------|
--0-------2-------2----|--L------------L-----|--0-------2-------5----|
--0-------2-------2----|--L------------L-----|--0-------2-------5----|
-----------------------|---------------------|-----------------------|
-----------------------|---------------------|-----------------------|


  H.           E  E     W                   H        H         
---------------------|-------------------|--------------------|
---------------------|-------------------|--------------------|
--L------------L-----|--7----------------|--7--------7--------|
--L------------L-----|--5----------------|--4--------5--------|
---------------------|-------------------|--------------------|
---------------------|-------------------|--------------------|


  Q    E  Q    E  Q       H        E  E   E  E     Q    E  Q    E  Q     
-----------------------|------------------------|-----------------------|
-----------------------|------------------------|-----------------------|
--0-------2-------5----|--L--------L--5p--2-----|--0-------2-------2----|
--0-------2-------5----|--L--------L--5p--2-----|--0-------2-------2----|
-----------------------|------------------------|-----------------------|
-----------------------|------------------------|-----------------------|


  H.           E  E     Q    E  Q    E  Q       H.           E  E   
---------------------|-----------------------|---------------------|
---------------------|-----------------------|---------------------|
--L------------L-----|--0-------2-------5----|--L------------L-----|
--L------------L-----|--0-------2-------5----|--L------------L-----|
---------------------|-----------------------|------------------0--|
---------------------|-----------------------|---------------------|


                                          PM                         
  Q    E  Q    E  Q       H.           E  E     Q    E  Q.     Q     
-----------------------|---------------------|----------------------|
-----------------------|---------------------|--8-------8------5----|
--0-------2-------2----|--L------------L-----|--7-------7------4----|
--0-------2-------2----|--L------------L-----|----------------------|
-----------------------|------------------0--|----------------------|
-----------------------|---------------------|----------------------|


           PM PM PM PM                                     PM PM PM PM  
  H        E  E  E  E      Q    E  Q.     Q       H        E  E  E  E   
-----------------------|-----------------------|-----------------------|
--L--------------------|--10-------8------5----|--L--------------------|
--L--------------------|---9-------7------4----|--L--------------------|
-----------------------|-----------------------|-----------------------|
-----------------------|-----------------------|-----------------------|
-----------0--0--0--0--|-----------------------|-----------0--0--0--0--|


  Q    E  Q.     Q       Q    H        E  E     E  H        Q.      
-----------------3----|--L----2--------3-----|---------------------|
--3-------3------3----|--L----3--------3-----|---------------------|
--2-------2------2----|--L----2--------2-----|--5------------------|
----------------------|----------------------|--5------------------|
----------------------|----------------------|--3------------------|
----------------------|----------------------|---------------------|


  H        E  Q.        Q.     Q.     Q       H.           E  E   
---------------------|---------------------|---------------------|
---------------------|---------------------|---------------------|
---------------------|---------5------7----|--L------------L--x--|
--------------5------|---------5------7----|--L------------L--x--|
--------------3------|--0------------------|---------------------|
---------------------|---------------------|---------------------|


  Q.     Q.     Q       H.           E  E     Q.     Q.     Q     
---------------------|---------------------|---------------------|
---------------------|---------------------|---------------------|
--4------5------4----|------------------x--|---------5------7----|
--5------5------5----|------------------x--|---------5------7----|
---------------------|--0------------L-----|--0------------------|
---------------------|---------------------|---------------------|


  H.            E  E     W                   W                 
----------------------|-------------------|-------------------|
----------------------|--8----------------|-------------------|
--7~------------L--x--|--7----------------|--7----------------|
--7~------------L--x--|--5----------------|--7----------------|
----------------------|-------------------|--5----------------|
----------------------|-------------------|-------------------|


  Q.     Q.     Q       H.            E  E     Q.     Q.     Q     
---------------------|----------------------|---------------------|
---------------------|----------------------|---------------------|
---------5------7----|--7~------------L--x--|--4------5------4----|
---------5------7----|--7~------------L--x--|--5------5------5----|
--0------------------|----------------------|---------------------|
---------------------|----------------------|---------------------|


  H.           E  E     Q.     Q.     Q       H.            E  E   
---------------------|---------------------|----------------------|
---------------------|---------------------|----------------------|
------------------x--|---------5------7----|--7~------------L--x--|
------------------x--|---------5------7----|--7~------------L--x--|
--0------------L-----|--0------------------|----------------------|
---------------------|---------------------|----------------------|


  W                   W                    W                 
-------------------|-------------------|--------------------|
--8----------------|-------------------|--------------------|
--7----------------|--7----------------|--10----------------|
--5----------------|--7----------------|--10----------------|
-------------------|--5----------------|---8----------------|
-------------------|-------------------|--------------------|


   W                    W                    H        Q     Q     
--------------------|--------------------|-----------------------|
--------------------|--------------------|-----------------------|
---L----------------|---L----------------|---L-------------------|
---L----------------|---L----------------|---L--------9----10----|
---L----------------|---L----------------|---L--------7-----7----|
--------------------|--------------------|-----------------------|


  W                   W                   Q.     Q    E  Q     
-------------------|-------------------|----------------------|
-------------------|-------------------|----------------------|
-------------------|-------------------|--------------x-------|
--7----------------|--L----------------|--7------7----x--7----|
--7----------------|--L----------------|--7------7----x--7----|
--5----------------|--L----------------|--5------5-------5----|


                                                    PM PM PM PM PM  
  Q    H.              Q.     Q.     Q       Q.     E  E  E  E  E   
--------------------|---------------------|------------------------|
--------------------|---------------------|------------------------|
--------------------|--5------5------5----|--L---------------------|
--7----7------------|--5------5------5----|--L---------------------|
--7----7------------|--3------3------3----|--L------3--3--3--3--3--|
--5----5------------|---------------------|------------------------|


                               PM PM PM PM PM                        
  Q.     Q.     Q       Q.     E  E  E  E  E     Q.     Q.     Q     
---------------------|------------------------|---------------------|
---------------------|------------------------|---------------------|
--5------5------5----|--L---------------------|--7------7------7----|
--5------5------5----|--L---------------------|--7------7------7----|
--3------3------3----|--L------3--3--3--3--3--|--5------5------5----|
---------------------|------------------------|---------------------|


         PM PM PM PM PM                                                
  Q.     E  E  E  E  E     E.  Q    Q.     E.     H.            Q      
------------------------|----------------------|----------------------|
------------------------|----------------------|----------------------|
--L---------------------|--9---9----9------L---|--L-------------------|
--L---------------------|--9---9----9------L---|--L-------------------|
--L------5--5--5--5--5--|--7---7----7------L---|--L-------------------|
------------------------|----------------------|---------------12\----|


  PM PM PM PM PM PM PM            PM PM PM PM PM            PM PM PM PM PM PM  
  E  E  E  E  E  E  E  E     Q    E  E  E  E  E  E     Q    E  E  E  E  E  E   
--------------------------|-------------------------|-------------------------|
--------------------------|-------------------------|-------------------------|
-----------------------2--|--L-------------------2--|--L----------------------|
--4--4--4--4--4--4--4-----|-------4--4--4--4--4-----|-------4--4--4--4--4--4--|
--------------------------|-------------------------|-------------------------|
--------------------------|-------------------------|-------------------------|


  PM PM PM PM PM PM PM PM    PM PM PM PM PM PM PM            PM PM PM PM PM PM  
  E  E  E  E  E  E  E  E     E  E  E  E  E  E  E  E     Q    E  E  E  E  E  E   
--------------------------|--------------------------|-------------------------|
--------------------------|--------------------------|-------------------------|
--------------------------|-----------------------2--|--L----------------------|
--4--2-----2--------------|--4--4--4--4--4--4--4-----|-------4--4--4--4--4--4--|
--------4-----4--3--2--0--|--------------------------|-------------------------|
--------------------------|--------------------------|-------------------------|


                               \1/                 PM PM PM PM PM PM PM     
  E  E  E  E  E  E  E    E     W                   E  E  E  E  E  E  E  E   
----------------------------|-------------------|--------------------------|
-----------------------<>2--|--L----------------|--------------------------|
--2-----------4-------------|-------------------|-----------------------2--|
-----4--4--4-----4--4-------|-------------------|--4--4--4--4--4--4--4-----|
----------------------------|-------------------|--------------------------|
----------------------------|-------------------|--------------------------|


       PM PM PM PM PM            PM PM PM PM PM PM    PM PM PM PM PM PM PM PM  
  Q    E  E  E  E  E  E     Q    E  E  E  E  E  E     E  E  E  E  E  E  E  E   
-------------------------|-------------------------|--------------------------|
-------------------------|-------------------------|--------------------------|
--L-------------------2--|--L----------------------|--------------------------|
-------4--4--4--4--4-----|-------4--4--4--4--4--4--|--4--2-----2--------------|
-------------------------|-------------------------|--------4-----4--3--4--2--|
-------------------------|-------------------------|--------------------------|


  PM PM PM PM PM PM PM             PM PM       PM PM                        
  E  E  E  E  E  E  E  E     E  E  E  E  E  E  E  E     H        Q    Q     
--------------------------|--------------------------|----------------5----|
--------------------------|--------------------------|--2--------5---------|
-----------------------2--|--L--L--------4--L--------|---------------------|
--4--4--4--4--4--4--4-----|--------4--4--------4--4--|---------------------|
--------------------------|--------------------------|---------------------|
--------------------------|--------------------------|---------------------|


  \1/                                                            PH       
  H.           Q       W                     E  E  E  E  E  E    S  S E   
--------------------|--------------------|-------------------------------|
--7------------0----|--9b----------------|--10--8------------------------|
--------------------|--------------------|---------9--8--x--9--<>9p-8-7--|
--------------------|--------------------|-------------------------------|
--------------------|--------------------|-------------------------------|
--------------------|--------------------|-------------------------------|


  E  E  E  Q.      Q        E  E  H         Q        W                  
-------------------------|------------------------|--------------------|
-------------------------|------------------------|--------------------|
--7--5-----5~------------|-----5------------------|--9b----------------|
--------7----------7~----|--5-----7~--------L\----|--------------------|
-------------------------|------------------------|--------------------|
-------------------------|------------------------|--------------------|


  |--3--|  |--3--|  |--3--|  |--3--|                              
  E  E  E  E  E  E  E  E  E  E  E  E     E  E  E  E  E  E  E  E   
--------------------------------------|--------------------------|
--8--7--8--7--8--7--8--7--8--7--8--7--|--7--8--7-----7--8--7-----|
--------------------------------------|-----------9-----------9--|
--------------------------------------|--------------------------|
--------------------------------------|--------------------------|
--------------------------------------|--------------------------|


                                         PM    
  E  E  H        Q         H.            Q     
-----------------------|----------------------|
--7--8--7--------------|----------------------|
-----------------x/----|--14------------14----|
-----------------------|----------------14----|
-----------------------|----------------------|
-----------------------|----------------------|


           PM          PM             PM          PM          PM      
   E   E   E   E   E   E   E   E      E   E   E   E   E   E   E   E   
----------------------------------|----------------------------------|
--13----------13----------13------|------13----------13--------------|
------14----------14----------14--|----------14----------14------14--|
----------14----------14----------|--14----------14----------14------|
----------------------------------|----------------------------------|
----------------------------------|----------------------------------|


   W                   W                    W                  
--------------------|--------------------|--------------------|
--------------------|--7b----------------|--Lb----------------|
---L----------------|--------------------|--------------------|
--------------------|--------------------|--------------------|
--------------------|--------------------|--------------------|
--------------------|--------------------|--------------------|


                    PM       PM   \1/                                 
  E.  S E  E  E  E  E  E     Q    H.              Q.     Q.     Q     
--------------------------|--------------------|---------------------|
--7---8-7--5--7--5-----5--|--------------------|---------------------|
--------------------7-----|--7----6------------|---------6------7----|
--------------------------|--------------------|--9------------------|
--------------------------|--------------------|---------------------|
--------------------------|--------------------|---------------------|


  Q.     Q.     Q       Q.     Q.     Q       Q.      Q.     Q     
---------------------|---------------------|----------------------|
---------------------|---------------------|----------------------|
--9------7------6----|--6------7------6----|--6b------------------|
---------------------|---------------------|----------9------9----|
---------------------|---------------------|----------------------|
---------------------|---------------------|----------------------|


  Q.     Q.     Q       Q.     Q.     Q       E.  S. S. S. S E.  S. S. S.  
---------------------|---------------------|------------------------------|
---------------------|---------------------|------------------------------|
---------6------7----|--9------7------6----|--7---9--7p-6--L-7---9--7p-6--|
--9------------------|---------------------|------------------------------|
---------------------|---------------------|------------------------------|
---------------------|---------------------|------------------------------|


  E.  S. S. S. S E.  S. S. S.    Q.     Q.      Q       Q.      Q.     Q     
------------------------------|----------------------|----------------------|
------------------------------|----------------------|--8--------------8----|
--7---9--7p-6--L-7---9--7p-6--|--7------9------10----|---------10-----------|
------------------------------|----------------------|----------------------|
------------------------------|----------------------|----------------------|
------------------------------|----------------------|----------------------|


   TP       TP                                                     
   H        H            W                    Q.     Q.      Q     
------------8--------|--10~----------------|----------------------|
--10-----------------|---------------------|----------------------|
---------------------|---------------------|--7------9------10----|
---------------------|---------------------|----------------------|
---------------------|---------------------|----------------------|
---------------------|---------------------|----------------------|


  Q.      Q.     Q       Q.     Q.     Q       Q.     Q.     Q     
----------------------|---------------------|---------------------|
--8-------------------|---------------------|---------------------|
---------10------9----|--7------5-----------|---------------------|
----------------------|----------------7----|--6------5------3----|
----------------------|---------------------|---------------------|
----------------------|---------------------|---------------------|


   Q.      Q.      Q        Q.      Q.      Q       Q    E  Q.     Q     
------------------------|------------------------|----------------------|
--15------13------------|------------------------|--8-------8------5----|
------------------14----|--13------12------10----|--7-------7------4----|
------------------------|------------------------|----------------------|
------------------------|------------------------|----------------------|
------------------------|------------------------|----------------------|


           PM PM PM PM                                     PM PM PM PM  
  H        E  E  E  E      Q    E  Q.     Q       H        E  E  E  E   
-----------------------|-----------------------|-----------------------|
--L--------------------|--10-------8------5----|--L--------------------|
--L--------------------|---9-------7------4----|--L--------------------|
-----------------------|-----------------------|-----------------------|
-----------------------|-----------------------|-----------------------|
-----------0--0--0--0--|-----------------------|-----------0--0--0--0--|


  Q    E  Q.     Q       Q    H        E  E     E  H        Q.      
-----------------3----|--L----2--------3-----|---------------------|
--3-------3------3----|--L----3--------3-----|---------------------|
--2-------2------2----|--L----2--------2-----|--5------------------|
----------------------|----------------------|--5------------------|
----------------------|----------------------|--3------------------|
----------------------|----------------------|---------------------|


  H        H           Q.     Q.     Q       H.           E  E   
--------------------|---------------------|---------------------|
--------------------|---------------------|---------------------|
--5-----------------|---------5------7----|--L------------L--x--|
--5--------5--------|---------5------7----|--L------------L--x--|
--3--------5--------|--0------------------|---------------------|
-----------3--------|---------------------|---------------------|


  Q.     Q.     Q       H.           E  E     Q.     Q.     Q     
---------------------|---------------------|---------------------|
---------------------|---------------------|---------------------|
--4------5------4----|------------------x--|---------5------7----|
--5------5------5----|------------------x--|---------5------7----|
---------------------|--0------------L-----|--0------------------|
---------------------|---------------------|---------------------|


  H.            E  E     W                   W                 
----------------------|-------------------|-------------------|
----------------------|--8----------------|-------------------|
--7~------------L--x--|--7----------------|--7----------------|
--7~------------L--x--|--5----------------|--7----------------|
----------------------|-------------------|--5----------------|
----------------------|-------------------|-------------------|


  Q.     Q.     Q       H.            E  E     Q.     Q.     Q     
---------------------|----------------------|---------------------|
---------------------|----------------------|---------------------|
---------5------7----|--7~------------L--x--|--4------5------4----|
---------5------7----|--7~------------L--x--|--5------5------5----|
--0------------------|----------------------|---------------------|
---------------------|----------------------|---------------------|


  H.           E  E     Q.     Q.     Q       H.            E  E   
---------------------|---------------------|----------------------|
---------------------|---------------------|----------------------|
------------------x--|---------5------7----|--7~------------L--x--|
------------------x--|---------5------7----|--7~------------L--x--|
--0------------L-----|--0------------------|----------------------|
---------------------|---------------------|----------------------|


  W                   W                   Q.     Q.     Q     
-------------------|-------------------|---------------------|
--8----------------|-------------------|---------------------|
--7----------------|--7----------------|--5------5------2----|
--5----------------|--7----------------|--5------5------2----|
-------------------|--5----------------|----------------0----|
-------------------|-------------------|---------------------|


  PM PM PM PM PM PM PM PM                          PM PM PM PM PM PM PM PM  
  E  E  E  E  E  E  E  E     Q.     Q.     Q       E  E  E  E  E  E  E  E   
--------------------------|---------------------|--------------------------|
--------------------------|---------------------|--------------------------|
--------------------------|--5------5------2----|--------------------------|
--------------------------|--5------5------2----|--------------------------|
--0--0--0--0--0--0--0--0--|----------------0----|--0--0--0--0--0--0--0--0--|
--------------------------|---------------------|--------------------------|


                        PM PM PM PM PM PM PM PM                      
  Q.     Q.     Q       E  E  E  E  E  E  E  E     W                 
---------------------|--------------------------|-------------------|
---------------------|--------------------------|--8----------------|
--5------5------2----|--------------------------|--7----------------|
--5------5------2----|--------------------------|--5----------------|
----------------0----|--0--0--0--0--0--0--0--0--|-------------------|
---------------------|--------------------------|-------------------|


                                            PM PM PM PM PM PM PM PM  
  W                   Q.     Q.     Q       E  E  E  E  E  E  E  E   
-------------------|---------------------|--------------------------|
-------------------|---------------------|--------------------------|
--7----------------|--5------5------2----|--------------------------|
--7----------------|--5------5------2----|--------------------------|
--5----------------|----------------0----|--0--0--0--0--0--0--0--0--|
-------------------|---------------------|--------------------------|


                        PM PM PM PM PM PM PM PM                        
  Q.     Q.     Q       E  E  E  E  E  E  E  E     Q.     Q.     Q     
---------------------|--------------------------|---------------------|
---------------------|--------------------------|---------------------|
--5------5------2----|--------------------------|--5------5------2----|
--5------5------2----|--------------------------|--5------5------2----|
----------------0----|--0--0--0--0--0--0--0--0--|----------------0----|
---------------------|--------------------------|---------------------|


  PM PM PM PM                                                          
  E  E  E  E   H            Q.     Q.     Q       Q.     Q.     E.  S  
-------------------------|---------------------|----------------------|
-------------------------|---------------------|----------------------|
-------------------------|---------------------|----------------------|
-------------------------|---------------------|----------------------|
--0--0--0--0--12\--------|--5------3------2----|--2-------------5-----|
-------------------------|---------------------|---------3------------|


  Q.     Q.     Q       Q.     Q.     E.  S    Q.     Q.     Q     
---------------------|----------------------|---------------------|
---------------------|----------------------|---------------------|
---------------------|----------------------|---------------------|
---------------------|----------------------|---------------------|
--5------3------2----|--2-------------5-----|--5------3------2----|
---------------------|---------3------------|---------------------|


  Q.     Q.     Q       Q.     Q.     Q       Q     H.             
---------------------|---------------------|---------------------||
---------------------|---------------------|---------------------||
---------------------|---------------------|---------------------||
---------------------|--2-------------2----|--L\-----------------||
--2------------------|--0------5------0----|--L\-----------------||
---------3------0----|---------3-----------|---------------------||



======================================================================
======================================================================

Guitar 2



E||-------|-------|-------|-------|-------|-------|-------|-------|-------|
B||-------|-------|-------|-------|-------|-------|-------|-------|-------|
G||-------|-------|-------|-------|-------|-------|-------|-------|-------|
D||-------|-------|-------|-------|-------|-------|-------|-------|-------|
A||-------|-------|-------|-------|-------|-------|-------|-------|-------|
E||-------|-------|-------|-------|-------|-------|-------|-------|-------|


-------|-------|-------|-------|-------|-------|-------|-------|-------|-------|
-------|-------|-------|-------|-------|-------|-------|-------|-------|-------|
-------|-------|-------|-------|-------|-------|-------|-------|-------|-------|
-------|-------|-------|-------|-------|-------|-------|-------|-------|-------|
-------|-------|-------|-------|-------|-------|-------|-------|-------|-------|
-------|-------|-------|-------|-------|-------|-------|-------|-------|-------|


                                                   \1/               
                                                   W                 
-------|-------|-------|-------|-------|-------|--17----------------|
-------|-------|-------|-------|-------|-------|--------------------|
-------|-------|-------|-------|-------|-------|--------------------|
-------|-------|-------|-------|-------|-------|--------------------|
-------|-------|-------|-------|-------|-------|--------------------|
-------|-------|-------|-------|-------|-------|--------------------|


   W                    W                    E   E   E   E   E   E   E   E   
--17----------------|---L----------------|--15--17--15------15--------------|
--------------------|--------------------|--------------17------17--16--17--|
--------------------|--------------------|----------------------------------|
--------------------|--------------------|----------------------------------|
--------------------|--------------------|----------------------------------|
--------------------|--------------------|----------------------------------|


   E   E   E   E   E   E   E   E      W                  
----------------------------------|--15b----------------|
--15--16--15--13--15--13------13--|---------------------|
--------------------------14------|---------------------|
----------------------------------|---------------------|
----------------------------------|---------------------|
----------------------------------|---------------------|


                             \1/                   \1/                       
   H.              Q         W                     W                         
---Lpb~-----------------|---------------------|---------------------|-------|
------------------------|---------------------|---------------------|-------|
------------------------|--<>5----------------|--<>L----------------|-------|
------------------------|---------------------|---------------------|-------|
------------------------|---------------------|---------------------|-------|
------------------------|---------------------|---------------------|-------|


-------|-------|-------|-------|-------|-------|-------|-------|-------|-------|
-------|-------|-------|-------|-------|-------|-------|-------|-------|-------|
-------|-------|-------|-------|-------|-------|-------|-------|-------|-------|
-------|-------|-------|-------|-------|-------|-------|-------|-------|-------|
-------|-------|-------|-------|-------|-------|-------|-------|-------|-------|
-------|-------|-------|-------|-------|-------|-------|-------|-------|-------|


-------|-------|-------|-------|-------|-------|-------|-------|-------|-------|
-------|-------|-------|-------|-------|-------|-------|-------|-------|-------|
-------|-------|-------|-------|-------|-------|-------|-------|-------|-------|
-------|-------|-------|-------|-------|-------|-------|-------|-------|-------|
-------|-------|-------|-------|-------|-------|-------|-------|-------|-------|
-------|-------|-------|-------|-------|-------|-------|-------|-------|-------|


-------|-------|-------|-------|-------|-------|-------|-------|-------|-------|
-------|-------|-------|-------|-------|-------|-------|-------|-------|-------|
-------|-------|-------|-------|-------|-------|-------|-------|-------|-------|
-------|-------|-------|-------|-------|-------|-------|-------|-------|-------|
-------|-------|-------|-------|-------|-------|-------|-------|-------|-------|
-------|-------|-------|-------|-------|-------|-------|-------|-------|-------|


-------|-------|-------|-------|-------|-------|-------|-------|-------|
-------|-------|-------|-------|-------|-------|-------|-------|-------|
-------|-------|-------|-------|-------|-------|-------|-------|-------|
-------|-------|-------|-------|-------|-------|-------|-------|-------|
-------|-------|-------|-------|-------|-------|-------|-------|-------|
-------|-------|-------|-------|-------|-------|-------|-------|-------|


                                    <        <                 
  W                   H.            Q        W                 
-------------------|---------------17----|--17----------------|
-------------------|---------------------|--------------------|
-------------------|---------------------|--------------------|
-------------------|---------------------|--------------------|
-------------------|---------------------|--------------------|
-------------------|---------------------|--------------------|


                                          TP  TP  
   W                     H         Q      E   E   
--17~----------------|---L---------L\------------|
---------------------|-----------------------15--|
---------------------|-------------------17------|
---------------------|---------------------------|
---------------------|---------------------------|
---------------------|---------------------------|


   TP  TP  TP  TP  TP  TP  TP  TP  
   E   E   E   E   E   E   E   E   
----------------------------------|
--17--18--17--15------15----------|
------------------17------17--16--|
----------------------------------|
----------------------------------|
----------------------------------|


   TP  TP  TP  TP  TP  TP  TP  TP  TP  TP  TP                       
   |---3---|   |---3---|   |---3---|                                
   E   E   E   E   E   E   E   E   E   E   E      W                 
----------------------------------------------|--------------------|
----------------------------------------------|--------------------|
--17--16--14--17--16--14--17--16--14----------|--14----------------|
--------------------------------------17--14--|--------------------|
----------------------------------------------|--------------------|
----------------------------------------------|--------------------|


   H         H                                                 
----------------------|-------|-------|-------|-------|-------|
----------------------|-------|-------|-------|-------|-------|
---L\-----------------|-------|-------|-------|-------|-------|
----------------------|-------|-------|-------|-------|-------|
----------------------|-------|-------|-------|-------|-------|
----------------------|-------|-------|-------|-------|-------|


   W                       W                     H.             Q     
-----------------------|---------------------|-----------------------|
-----------------------|---------------------|-----------------------|
--12pbr----------------|---Lb----------------|---Lpb-----------------|
-----------------------|---------------------|-----------------------|
-----------------------|---------------------|-----------------------|
-----------------------|---------------------|-----------------------|


-----------|-------|-------|-------|-------|-------|-------|-------|-------|
-----------|-------|-------|-------|-------|-------|-------|-------|-------|
-----------|-------|-------|-------|-------|-------|-------|-------|-------|
-----------|-------|-------|-------|-------|-------|-------|-------|-------|
-----------|-------|-------|-------|-------|-------|-------|-------|-------|
-----------|-------|-------|-------|-------|-------|-------|-------|-------|


                                  \1/                                    
                                  W                   H        H         
-------|-------|-------|-------|-------------------|--------------------|
-------|-------|-------|-------|-------------------|--------------------|
-------|-------|-------|-------|--0----------------|--L-----------------|
-------|-------|-------|-------|-------------------|--------------------|
-------|-------|-------|-------|-------------------|--------------------|
-------|-------|-------|-------|-------------------|--------------------|


                                           W                  
-------|-------|-------|-------|-------|---------------------|
-------|-------|-------|-------|-------|--15b----------------|
-------|-------|-------|-------|-------|---------------------|
-------|-------|-------|-------|-------|---------------------|
-------|-------|-------|-------|-------|---------------------|
-------|-------|-------|-------|-------|---------------------|


                          W                                       
   W                      W                    W                  
----------------------|--------------------|---------------------|
---Lpb----------------|--------------------|--20b----------------|
----------------------|--------------------|---------------------|
----------------------|--------------------|---------------------|
----------------------|--15----------------|---------------------|
----------------------|--------------------|---------------------|


                           W                   
   W                       W                   
-----------------------|----------------------|
---Lpb~----------------|---Lpb----------------|
-----------------------|----------------------|
-----------------------|----------------------|
-----------------------|----------------------|
-----------------------|----------------------|


   E   E   E   E   E   E   E   E      E   E   E   E   E   E   E   E   
--17--19--20--19--17--19--17------|----------------------------------|
------------------------------20--|--19--17--20--19--17--19--17------|
----------------------------------|------------------------------19--|
----------------------------------|----------------------------------|
----------------------------------|----------------------------------|
----------------------------------|----------------------------------|


   E   E   E   E   E   E   E   E      E   E   E   E   E   E   E   E   
----------------------------------|----------------------------------|
----------------------------------|----------------------------------|
--20--19--20--19--17--20--19--17--|--20--19--20--19--17--20--19--17--|
----------------------------------|----------------------------------|
----------------------------------|----------------------------------|
----------------------------------|----------------------------------|


   H.            Q                                         W                  
-----------------------|-------|-------|-------|-------|---------------------|
-----------------------|-------|-------|-------|-------|--20b----------------|
--17-------------L\----|-------|-------|-------|-------|---------------------|
-----------------------|-------|-------|-------|-------|---------------------|
-----------------------|-------|-------|-------|-------|---------------------|
-----------------------|-------|-------|-------|-------|---------------------|


   W                      E   E   E   E   E   E   E   E   
----------------------|--17------------------------------|
---Lpb----------------|------20--17------17--------------|
----------------------|--------------20------20--19--17--|
----------------------|----------------------------------|
----------------------|----------------------------------|
----------------------|----------------------------------|


   E   E   H         Q                                                      
---------------------------|-------|-------|-------|-------|-------|-------|
---------------------------|-------|-------|-------|-------|-------|-------|
--19------17---------L\----|-------|-------|-------|-------|-------|-------|
------19-------------------|-------|-------|-------|-------|-------|-------|
---------------------------|-------|-------|-------|-------|-------|-------|
---------------------------|-------|-------|-------|-------|-------|-------|


-------|-------|-------|-------|-------|-------|-------|-------|-------|-------|
-------|-------|-------|-------|-------|-------|-------|-------|-------|-------|
-------|-------|-------|-------|-------|-------|-------|-------|-------|-------|
-------|-------|-------|-------|-------|-------|-------|-------|-------|-------|
-------|-------|-------|-------|-------|-------|-------|-------|-------|-------|
-------|-------|-------|-------|-------|-------|-------|-------|-------|-------|


-------|-------|-------|-------|-------|-------|-------|-------|-------|-------|
-------|-------|-------|-------|-------|-------|-------|-------|-------|-------|
-------|-------|-------|-------|-------|-------|-------|-------|-------|-------|
-------|-------|-------|-------|-------|-------|-------|-------|-------|-------|
-------|-------|-------|-------|-------|-------|-------|-------|-------|-------|
-------|-------|-------|-------|-------|-------|-------|-------|-------|-------|


-------|-------|-------|-------|-------|-------|-------|-------|-------|-------|
-------|-------|-------|-------|-------|-------|-------|-------|-------|-------|
-------|-------|-------|-------|-------|-------|-------|-------|-------|-------|
-------|-------|-------|-------|-------|-------|-------|-------|-------|-------|
-------|-------|-------|-------|-------|-------|-------|-------|-------|-------|
-------|-------|-------|-------|-------|-------|-------|-------|-------|-------|


                                   Q.      Q.      Q     
-------|-------|-------|-------|------------------------|
-------|-------|-------|-------|----------14------15----|
-------|-------|-------|-------|--16--------------------|
-------|-------|-------|-------|------------------------|
-------|-------|-------|-------|------------------------|
-------|-------|-------|-------|------------------------|


   Q.      Q.      Q        Q.      Q.      Q        Q.       Q.      Q     
------------------------|------------------------|-------------------------|
--17------15------14----|--14------15------14----|--14b--------------------|
------------------------|------------------------|-----------16------16----|
------------------------|------------------------|-------------------------|
------------------------|------------------------|-------------------------|
------------------------|------------------------|-------------------------|


   Q.      Q.      Q        Q.      Q.      Q     
------------------------|------------------------|
----------14------15----|--17------15------14----|
--16--------------------|------------------------|
------------------------|------------------------|
------------------------|------------------------|
------------------------|------------------------|


   E.   S. S.  S. S  E.   S. S.  S.    E.   S. S.  S. S  E.   S. S.  S. 
-----------------------------------|-----------------------------------|
--15---17-15p-14--L-15---17-15p-14-|--15---17-15p-14--L-15---17-15p-14-|
-----------------------------------|-----------------------------------|
-----------------------------------|-----------------------------------|
-----------------------------------|-----------------------------------|
-----------------------------------|-----------------------------------|


                                                               TP        
   Q.      Q.      Q        Q.      Q.      Q        H         H         
------------------------|--15--------------15----|--17--------20--------|
--15------17------18----|----------18------------|----------------------|
------------------------|------------------------|----------------------|
------------------------|------------------------|----------------------|
------------------------|------------------------|----------------------|
------------------------|------------------------|----------------------|


   W                     Q.      Q.      Q        Q.      Q.      Q     
--22~----------------|------------------------|--15--------------------|
---------------------|--15------17------18----|----------18------17----|
---------------------|------------------------|------------------------|
---------------------|------------------------|------------------------|
---------------------|------------------------|------------------------|
---------------------|------------------------|------------------------|


   Q.      Q.      Q        Q.      Q.      Q        Q.      Q.      Q     
------------------------|------------------------|------------------------|
--15------13------------|------------------------|--15------13------------|
------------------14----|--13------12------10----|------------------14----|
------------------------|------------------------|------------------------|
------------------------|------------------------|------------------------|
------------------------|------------------------|------------------------|


   Q.      Q.      Q                                                     
------------------------|-------|-------|-------|-------|-------|-------|
------------------------|-------|-------|-------|-------|-------|-------|
--13------12------10----|-------|-------|-------|-------|-------|-------|
------------------------|-------|-------|-------|-------|-------|-------|
------------------------|-------|-------|-------|-------|-------|-------|
------------------------|-------|-------|-------|-------|-------|-------|


-------|-------|-------|-------|-------|-------|-------|-------|-------|-------|
-------|-------|-------|-------|-------|-------|-------|-------|-------|-------|
-------|-------|-------|-------|-------|-------|-------|-------|-------|-------|
-------|-------|-------|-------|-------|-------|-------|-------|-------|-------|
-------|-------|-------|-------|-------|-------|-------|-------|-------|-------|
-------|-------|-------|-------|-------|-------|-------|-------|-------|-------|


-------|-------|-------|-------|-------|-------|-------|-------|
-------|-------|-------|-------|-------|-------|-------|-------|
-------|-------|-------|-------|-------|-------|-------|-------|
-------|-------|-------|-------|-------|-------|-------|-------|
-------|-------|-------|-------|-------|-------|-------|-------|
-------|-------|-------|-------|-------|-------|-------|-------|


   Q.      Q.      Q        H.            Q        Q.      Q.      Q     
------------------------|----------------------|------------------------|
--13------13------10----|---L~-----------------|--13------13------10----|
------------------------|----------------------|------------------------|
------------------------|----------------------|------------------------|
------------------------|----------------------|------------------------|
------------------------|----------------------|------------------------|


   H.            Q        Q.      Q.      Q        H.            Q     
----------------------|------------------------|----------------------|
---L~-----------------|--13------13------10----|---L~-----------------|
----------------------|------------------------|----------------------|
----------------------|------------------------|----------------------|
----------------------|------------------------|----------------------|
----------------------|------------------------|----------------------|


   W                       W                    Q.      Q.      Q     
--15pbr----------------|--15----------------|------------------------|
-----------------------|--------------------|--13------13------10----|
-----------------------|--------------------|------------------------|
-----------------------|--------------------|------------------------|
-----------------------|--------------------|------------------------|
-----------------------|--------------------|------------------------|


   H.            Q        Q.      Q.      Q        H.            Q     
----------------------|------------------------|----------------------|
---L~-----------------|--13------13------10----|---L~-----------------|
----------------------|------------------------|----------------------|
----------------------|------------------------|----------------------|
----------------------|------------------------|----------------------|
----------------------|------------------------|----------------------|


   Q.      Q.      Q        H.            Q        Q.     Q.     Q     
------------------------|----------------------|--10------8------7----|
--13------13------10----|---L~-----------------|----------------------|
------------------------|----------------------|----------------------|
------------------------|----------------------|----------------------|
------------------------|----------------------|----------------------|
------------------------|----------------------|----------------------|


  Q.     Q.      E.  S     Q.     Q.     Q       Q.     Q.      E.  S  
--7-------------10-----|--10------8------7----|--7-------------10-----|
---------8-------------|----------------------|---------8-------------|
-----------------------|----------------------|-----------------------|
-----------------------|----------------------|-----------------------|
-----------------------|----------------------|-----------------------|
-----------------------|----------------------|-----------------------|


   Q.     Q.     Q       Q.     Q.      E.  S     Q.     Q.      Q     
--10------8------7----|--7-------------10-----|-----------------------|
----------------------|---------8-------------|--10------8------10----|
----------------------|-----------------------|-----------------------|
----------------------|-----------------------|-----------------------|
----------------------|-----------------------|-----------------------|
----------------------|-----------------------|-----------------------|


   Q     H.             
----------------------||
---L\-----------------||
----------------------||
----------------------||
----------------------||
----------------------||




Duration Legend
---------------
W - whole
H - half
Q - quarter
E - 8th
S - 16th
T - 32nd
X - 64th
. - note dotted
|-n-|  - n-tuplets


Tablature Legend
----------------
L - tied note
x - dead note
g - grace note
(n) - ghost note
> - accentuded note
NH - natural harmonic
AH - artificial harmonic
TH - tapped harmonic
SH - semi harmonic
PH - pitch harmonic
h - hammer on
p - pull off
b - bend
br - bendRelease
pb - preBend
pbr - preBendRelease
brb - bendReleaseBend
\n/ - tremolo bar dip
\n - tremolo bar dive
-/n - tremolo bar Release up
/n\ - tremolo bar inverted dip
/n - tremolo bar return
-\n - tremolo bar Release down
S - shift slide
s - legato slide
/ -  slide into from below or out of upwards
\ -  slide into from above or out of downwards
~ - vibrato
W - wide vibrato
tr - trill
TP - tremolo picking
T - tapping
S - slap
P - pop
< - fade in
^ - brush up
v - brush down
comments
We did not receive enough feedback on this tab! Please rate:
print report bad tab
1 2 3 4 5
I want to post or [tab]
guest
You may want to rate the tab now too:
select rating
Please do not post tabs as comments. Select "correction" instead!