Oops, an error
Loading. Please wait.

Gonna Getcha Tab

ver1
ver1

Whole song

Interactive

More versions @911Tabs.com
301 views 1 this week
no commentswrite comment
1 2 3 4 5
please rate
add to favorites launch autoscroll
font size
0
reset
Autoscroll
+/-
esc
set tempo
stop
Contributor
Difficulty
intermediate
WARNING: You are trying to view
                                    content from Ultimate-Guitar.com
                                    in an unauthorized application,
                                    which is prohibited.

                                    Please use an official Ultimate
                                    Guitar Tabs application for iPhone,
                                    iPad or Android to access legitimate
                                    chords, guitar, bass, and drum tabs
                                    from Ultimate-Guitar.com database.

                                    Type "ultimate guitar tabs" in Apple
                                    App Store's or Android Market's
                                    search to find the application.
-----------------------------------------------------------------------------
                      Gonna Getcha - Great White (GUITAR)
                       
-----------------------------------------------------------------------------
Tabbed by: Scotto10

Tuning: Standard

=============================================================================

Guitar - rhythm



                                PM PM    PM PM    PM    PM    PM PM             
     Q    H         Q        E  E  E  E  E  E  E  E     E  E  E  E  Q    E  E   
E||-----------------------|--------------------------|--------------3----2--3--|
B||-----------------------|--------------------------|--------------3----3--3--|
G||-----------------------|--2--------2--------2-----|-----2--------2----2--2--|
D||-----------------------|--2--------2--------2-----|-----2--------0----0-----|
A||-----------------x\----|--0--0--0--0--0--0--0--0--|--0--0--0--0-------------|
E||-----------------x\----|--------------------------|-------------------------|


     PM PM    PM PM    PM    PM    PM PM                  PM PM    PM PM    PM  
  E  E  E  E  E  E  E  E     E  E  E  E  Q    E  E     E  E  E  E  E  E  E  E   
--------------------------|--------------3----2--3--|--------------------------|
--------------------------|--------------3----3--3--|--------------------------|
--2--------2--------2-----|-----2--------2----2--2--|--2--------2--------2-----|
--2--------2--------2-----|-----2--------0----0-----|--2--------2--------2-----|
--0--0--0--0--0--0--0--0--|--0--0--0--0-------------|--0--0--0--0--0--0--0--0--|
--------------------------|-------------------------|--------------------------|


  PM    PM PM                  PM PM    PM PM    PM    PM    PM PM             
  E  E  E  E  Q    E  E     E  E  E  E  E  E  E  E     E  E  E  E  Q    E  E   
--------------3----2--3--|--------------------------|--------------3----2--3--|
--------------3----3--3--|--------------------------|--------------3----3--3--|
-----2--------2----2--2--|--2--------2--------2-----|-----2--------2----2--2--|
-----2--------0----0-----|--2--------2--------2-----|-----2--------0----0-----|
--0--0--0--0-------------|--0--0--0--0--0--0--0--0--|--0--0--0--0-------------|
-------------------------|--------------------------|-------------------------|


     PM PM    PM PM    PM    PM    PM PM                  PM PM    PM PM    PM  
  E  E  E  E  E  E  E  E     E  E  E  E  Q    E  E     E  E  E  E  E  E  E  E   
--------------------------|--------------3----2--3--|--------------------------|
--------------------------|--------------3----3--3--|--------------------------|
--2--------2--------2-----|-----2--------2----2--2--|--2--------2--------2-----|
--2--------2--------2-----|-----2--------0----0-----|--2--------2--------2-----|
--0--0--0--0--0--0--0--0--|--0--0--0--0-------------|--0--0--0--0--0--0--0--0--|
--------------------------|-------------------------|--------------------------|


  PM    PM PM                  PM PM    PM PM    PM    PM    PM PM             
  E  E  E  E  Q    E  E     E  E  E  E  E  E  E  E     E  E  E  E  Q    E  E   
--------------3----2--3--|--------------------------|--------------3----2--3--|
--------------3----3--3--|--------------------------|--------------3----3--3--|
-----2--------2----2--2--|--2--------2--------2-----|-----2--------2----2--2--|
-----2--------0----0-----|--2--------2--------2-----|-----2--------0----0-----|
--0--0--0--0-------------|--0--0--0--0--0--0--0--0--|--0--0--0--0-------------|
-------------------------|--------------------------|-------------------------|


     PM PM    PM PM    PM    PM    PM PM                  PM PM    PM PM    PM  
  E  E  E  E  E  E  E  E     E  E  E  E  Q    E  E     E  E  E  E  E  E  E  E   
--------------------------|--------------3----2--3--|--------------------------|
--------------------------|--------------3----3--3--|--------------------------|
--2--------2--------2-----|-----2--------2----2--2--|--2--------2--------2-----|
--2--------2--------2-----|-----2--------0----0-----|--2--------2--------2-----|
--0--0--0--0--0--0--0--0--|--0--0--0--0-------------|--0--0--0--0--0--0--0--0--|
--------------------------|-------------------------|--------------------------|


  PM    PM PM                  PM PM    PM PM    PM    PM    PM PM             
  E  E  E  E  Q    E  E     E  E  E  E  E  E  E  E     E  E  E  E  Q    E  E   
--------------3----2--3--|--------------------------|--------------3----2--3--|
--------------3----3--3--|--------------------------|--------------3----3--3--|
-----2--------2----2--2--|--2--------2--------2-----|-----2--------2----2--2--|
-----2--------0----0-----|--2--------2--------2-----|-----2--------0----0-----|
--0--0--0--0-------------|--0--0--0--0--0--0--0--0--|--0--0--0--0-------------|
-------------------------|--------------------------|-------------------------|


     PM PM    PM PM    PM    PM    PM PM                  PM PM    PM PM    PM  
  E  E  E  E  E  E  E  E     E  E  E  E  Q    E  E     E  E  E  E  E  E  E  E   
--------------------------|--------------3----2--3--|--------------------------|
--------------------------|--------------3----3--3--|--------------------------|
--2--------2--------2-----|-----2--------2----2--2--|--2--------2--------2-----|
--2--------2--------2-----|-----2--------0----0-----|--2--------2--------2-----|
--0--0--0--0--0--0--0--0--|--0--0--0--0-------------|--0--0--0--0--0--0--0--0--|
--------------------------|-------------------------|--------------------------|


  PM    PM PM                   PM PM    PM PM    PM  
  E  E  E  E  Q    E.  S     E  E  E  E  E  E  E  E   
--------------8----7---L\-|--2--------2--------2-----|
--------------8----8---L\-|--3--------3--------3-----|
-----2--------7----7---L\-|--2--------2--------2-----|
-----2--------------------|--0--0--0--0--0--0--0--0--|
--0--0--0--0--------------|--------------------------|
--------------------------|--------------------------|


  PM    PM PM                   PM PM    PM PM    PM  
  E  E  E  E  Q    E.  S     E  E  E  E  E  E  E  E   
-----2--------8----L---L\-|--2--------2--------2-----|
-----3--------8----L---L\-|--3--------3--------3-----|
-----2--------7----L---L\-|--2--------2--------2-----|
--0--0--0--0--------------|--0--0--0--0--0--0--0--0--|
--------------------------|--------------------------|
--------------------------|--------------------------|


  PM    PM PM                   PM PM    PM PM    PM    PM    PM PM             
  E  E  E  E  Q    E.  S     E  E  E  E  E  E  E  E     E  E  E  E  Q    E  E   
-----2--------8----L---L\-|--------------------------|--------------3----2--3--|
-----3--------8----L---L\-|--------------------------|--------------3----3--3--|
-----2--------7----L---L\-|--2--------2--------2-----|-----2--------2----2--2--|
--0--0--0--0--------------|--2--------2--------2-----|-----2--------0----0-----|
--------------------------|--0--0--0--0--0--0--0--0--|--0--0--0--0-------------|
--------------------------|--------------------------|-------------------------|


     PM PM    PM PM    PM    PM    PM PM                                      
  E  E  E  E  E  E  E  E     E  E  E  E  Q    E  E     H        E  E   E  E   
--------------------------|--------------3----2--3--|------------------------|
--------------------------|--------------3----3--3--|------------------------|
--2--------2--------2-----|-----2--------2----2--2--|------------------------|
--2--------2--------2-----|-----2--------0----0-----|--2--------L---------2--|
--0--0--0--0--0--0--0--0--|--0--0--0--0-------------|--2--------L------------|
--------------------------|-------------------------|--0--------L--3h--4-----|


  E  E  E  E  H           Q    E  E  Q.     E     W                 
-----------------------|--------------------3--|--L----------------|
-----------------------|--------------------3--|--L----------------|
-----------------------|----------2--L------0--|--L----------------|
--L--------2--L--------|--4----4------------0--|--L----------------|
-----------------------|--4--------------------|-------------------|
--------4--------------|--2-----------------3--|--L----------------|


     PM                                            PM                   
  E  E  Q    E  E  E  E     W                   E  E  Q    E  E  E  E   
----------------------3--|--L----------------|----------------------3--|
--2-----2-------------3--|--L----------------|--2-----2-------------3--|
--2-----2-------2-----4--|--L----------------|--2-----2-------2-----0--|
--2-----2-------4-----5--|--L----------------|--2-----2-------4-----0--|
--0--0--0-------4-----5--|--L----------------|--0--0--0-------4--------|
----------------2-----3--|--L----------------|----------------2-----3--|


                            PM                                       
  H        E  E  Q       E  E  Q    E  E  E  E     W                 
--L--------L-----2----|----------------------3--|--L----------------|
--L--------L-----3----|--2-----2-------------3--|--L----------------|
--L--------L-----2----|--2-----2-------2-----0--|--L----------------|
--L--------L-----0----|--2-----2-------4-----0--|--L----------------|
----------------------|--0--0--0-------4--------|-------------------|
--L--------L----------|----------------2-----3--|--L----------------|


     PM                                               PM PM    PM PM    PM  
  E  E  Q    E  E  E  E     H        E.  S Q       E  E  E  E  E  E  E  E   
----------------------3--|--L-------------------|--------------------------|
--2-----2-------------3--|--L--------5-----5----|--------------------------|
--2-----2-------2-----0--|--L--------5-----5----|--2--------2--------2-----|
--2-----2-------4-----0--|--L--------5-----5----|--2--------2--------2-----|
--0--0--0-------4--------|-----------3-----3----|--0--0--0--0--0--0--0--0--|
----------------2-----3--|--L-------------------|--------------------------|


  PM PM    PM    PM            PM PM    PM PM                           
  E  E  E  E  E  E  Q       E  E  E  E  E  E  Q       W                 
--------3-----2-----3----|--------------------3----|--L----------------|
--------3-----3-----3----|--------------------3----|--L----------------|
--------2-----2-----2----|--2--------2--------0----|--L----------------|
--------0-----0-----0----|--2--------2--------0----|--L----------------|
--0--0-----0-----0-------|--0--0--0--0--0--0-------|-------------------|
-------------------------|--------------------3----|--L----------------|


     PM PM    PM PM    PM    PM    PM PM                  PM PM    PM PM    PM  
  E  E  E  E  E  E  E  E     E  E  E  E  Q    E  E     E  E  E  E  E  E  E  E   
--------------------------|--------------3----2--3--|--------------------------|
--------------------------|--------------3----3--3--|--------------------------|
--2--------2--------2-----|-----2--------2----2--2--|--2--------2--------2-----|
--2--------2--------2-----|-----2--------0----0-----|--2--------2--------2-----|
--0--0--0--0--0--0--0--0--|--0--0--0--0-------------|--0--0--0--0--0--0--0--0--|
--------------------------|-------------------------|--------------------------|


  PM    PM PM                  PM PM    PM PM    PM    PM    PM PM             
  E  E  E  E  Q    E  E     E  E  E  E  E  E  E  E     E  E  E  E  Q    E  E   
--------------3----2--3--|--------------------------|--------------3----2--3--|
--------------3----3--3--|--------------------------|--------------3----3--3--|
-----2--------2----2--2--|--2--------2--------2-----|-----2--------2----2--2--|
-----2--------0----0-----|--2--------2--------2-----|-----2--------0----0-----|
--0--0--0--0-------------|--0--0--0--0--0--0--0--0--|--0--0--0--0-------------|
-------------------------|--------------------------|-------------------------|


     PM PM    PM PM    PM    PM    PM PM              
  E  E  E  E  E  E  E  E     E  E  E  E  Q    E.  S   
--------------------------|--------------8----7---L\-|
--------------------------|--------------8----8---L\-|
--2--------2--------2-----|-----2--------7----7---L\-|
--2--------2--------2-----|-----2--------------------|
--0--0--0--0--0--0--0--0--|--0--0--0--0--------------|
--------------------------|--------------------------|


     PM PM    PM PM    PM    PM    PM PM              
  E  E  E  E  E  E  E  E     E  E  E  E  Q    E.  S   
--2--------2--------2-----|-----2--------8----8---L\-|
--3--------3--------3-----|-----3--------8----8---L\-|
--2--------2--------2-----|-----2--------7----7---L\-|
--0--0--0--0--0--0--0--0--|--0--0--0--0--------------|
--------------------------|--------------------------|
--------------------------|--------------------------|


     PM PM    PM PM    PM    PM    PM PM              
  E  E  E  E  E  E  E  E     E  E  E  E  Q    E.  S   
--2--------2--------2-----|-----2--------8----8---L\-|
--3--------3--------3-----|-----3--------8----8---L\-|
--2--------2--------2-----|-----2--------7----7---L\-|
--0--0--0--0--0--0--0--0--|--0--0--0--0--------------|
--------------------------|--------------------------|
--------------------------|--------------------------|


     PM PM    PM PM    PM    PM    PM PM                  PM PM    PM PM    PM  
  E  E  E  E  E  E  E  E     E  E  E  E  Q    E  E     E  E  E  E  E  E  E  E   
--------------------------|--------------3----2--3--|--------------------------|
--------------------------|--------------3----3--3--|--------------------------|
--2--------2--------2-----|-----2--------2----2--2--|--2--------2--------2-----|
--2--------2--------2-----|-----2--------0----0-----|--2--------2--------2-----|
--0--0--0--0--0--0--0--0--|--0--0--0--0-------------|--0--0--0--0--0--0--0--0--|
--------------------------|-------------------------|--------------------------|


  PM    PM PM                                                           
  E  E  E  E  Q    E  E     H        E  E   E  E     Q    H.            
--------------3----2--3--|--0--------L------------|-------0------------|
--------------3----3--3--|--0--------L------------|-------0------------|
-----2--------2----2--2--|--1--------L------------|-------1------------|
-----2--------0----0-----|--2--------L---------2--|--L-----------------|
--0--0--0--0-------------|--2--------L------------|--------------------|
-------------------------|--0--------L--3h--4-----|--------------------|


                                       PM PM       PM                   
  Q    E  E  Q.     E     H.           E  E     E  E  Q    E  E  E  E   
--------------------3--|--L------------------|----------------------3--|
--------------------3--|--L------------------|--2-----2-------------3--|
----------2--L------0--|--L------------------|--2-----2-------2-----0--|
--4----4------------0--|--L------------------|--2-----2-------4-----0--|
--4--------------------|---------------------|--0--0--0-------4--------|
--2-----------------3--|--L------------3--3--|----------------2-----3--|


                         PM                                          
  W                   E  E  Q    E  E  E  E     H        E  E  Q     
--L----------------|----------------------3--|--L--------L-----2----|
--L----------------|--2-----2-------------3--|--L--------L-----3----|
--L----------------|--2-----2-------2-----0--|--L--------L-----2----|
--L----------------|--2-----2-------4-----0--|--L--------------0----|
-------------------|--0--0--0-------4--------|----------------------|
--L----------------|----------------2-----3--|--L--------L----------|


     PM                                            PM                   
  E  E  Q    E  E  E  E     W                   E  E  Q    E  E  E  E   
----------------------3--|--L----------------|----------------------3--|
--2-----2-------------3--|--L----------------|--2-----2-------------3--|
--2-----2-------2-----0--|--L----------------|--2-----2-------2-----0--|
--2-----2-------4-----0--|--L----------------|--2-----2-------4-----0--|
--0--0--0-------4--------|-------------------|--0--0--0-------4--------|
----------------2-----3--|--L----------------|----------------2-----3--|


  H        E.  S Q       W                   W                 
--L-------------------|-------------------|-------------------|
--L--------5-----5----|-------------------|-------------------|
--L--------5-----5----|--2----------------|--L----------------|
--L--------5-----5----|--2----------------|--L----------------|
-----------3-----3----|--0----------------|--L----------------|
--L-------------------|-------------------|-------------------|


                                          ^                                     
  W                   W                   W                   W                 
-------------------|-------------------|--0----------------|--L----------------|
-------------------|-------------------|--0----------------|--L----------------|
--L----------------|--L----------------|--2----------------|--L----------------|
--L----------------|--L----------------|--2----------------|--L----------------|
--L----------------|--L----------------|--0----------------|--L----------------|
-------------------|-------------------|-------------------|-------------------|


  ^                                       ^                                     
  W                   W                   W                   W                 
--3----------------|--L----------------|--0----------------|--L----------------|
--3----------------|--L----------------|--3----------------|--L----------------|
--4----------------|--L----------------|--2----------------|--L----------------|
--5----------------|--L----------------|--0----------------|--L----------------|
-------------------|-------------------|-------------------|-------------------|
-------------------|-------------------|-------------------|-------------------|


  ^                                       ^                                     
  W                   W                   W                   W                 
--0----------------|--L----------------|--0----------------|--L----------------|
--0----------------|--L----------------|--0----------------|--L----------------|
--2----------------|--L----------------|--2----------------|--L----------------|
--2----------------|--L----------------|--2----------------|--L----------------|
--0----------------|--L----------------|--0----------------|--L----------------|
-------------------|-------------------|-------------------|-------------------|


  ^                                       ^                                     
  W                   W                   W                   W                 
--3----------------|--L----------------|--0----------------|--L----------------|
--3----------------|--L----------------|--3----------------|--L----------------|
--4----------------|--L----------------|--2----------------|--L----------------|
--5----------------|--L----------------|--0----------------|--L----------------|
-------------------|-------------------|-------------------|-------------------|
-------------------|-------------------|-------------------|-------------------|


  PM PM PM PM PM PM PM PM    PM PM PM PM PM PM PM PM  
  E  E  E  E  E  E  E  E     E  E  E  E  E  E  E  E   
--------------------------|--------------------------|
--------------------------|--------------------------|
--------------------------|--------------------------|
--2--2--2--2--2--2--2--2--|--2--2--2--2--2--2--2--2--|
--0--0--0--0--0--0--0--0--|--0--0--0--0--0--0--0--0--|
--------------------------|--------------------------|


     PM PM    PM PM    PM    PM    PM PM                  PM PM    PM PM    PM  
  E  E  E  E  E  E  E  E     E  E  E  E  Q    E  E     E  E  E  E  E  E  E  E   
--------------------------|--------------3----2--3--|--------------------------|
--------------------------|--------------3----3--3--|--------------------------|
--2--------2--------2-----|-----2--------2----2--2--|--2--------2--------2-----|
--2--------2--------2-----|-----2--------0----0-----|--2--------2--------2-----|
--0--0--0--0--0--0--0--0--|--0--0--0--0-------------|--0--0--0--0--0--0--0--0--|
--------------------------|-------------------------|--------------------------|


  PM    PM PM                  PM PM    PM PM    PM    PM    PM PM             
  E  E  E  E  Q    E  E     E  E  E  E  E  E  E  E     E  E  E  E  Q    E  E   
--------------3----2--3--|--------------------------|--------------3----2--3--|
--------------3----3--3--|--------------------------|--------------3----3--3--|
-----2--------2----2--2--|--2--------2--------2-----|-----2--------2----2--2--|
-----2--------0----0-----|--2--------2--------2-----|-----2--------0----0-----|
--0--0--0--0-------------|--0--0--0--0--0--0--0--0--|--0--0--0--0-------------|
-------------------------|--------------------------|-------------------------|


     PM PM    PM PM    PM    PM    PM PM    PM    PM  
  E  E  E  E  E  E  E  E     E  E  E  E  E  E  E  E   
--------------------------|--------------------------|
--------------------------|--------------------------|
--2--------2--------2-----|-----2--------2-----2-----|
--2--------2--------2-----|-----2--------2-----2-----|
--0--0--0--0--0--0--0--0--|--0--0--0--0--0--0--0--0--|
--------------------------|--------------------------|


     PM PM    PM PM    PM    PM    PM PM              
  E  E  E  E  E  E  E  E     E  E  E  E  Q    E.  S   
--2--------2--------2-----|-----2--------8----8---L\-|
--3--------3--------3-----|-----3--------8----8---L\-|
--2--------2--------2-----|-----2--------7----7---L\-|
--0--0--0--0--0--0--0--0--|--0--0--0--0--------------|
--------------------------|--------------------------|
--------------------------|--------------------------|


     PM PM    PM PM    PM    PM    PM PM              
  E  E  E  E  E  E  E  E     E  E  E  E  Q    E.  S   
--2--------2--------2-----|-----2--------8----8---L\-|
--3--------3--------3-----|-----3--------8----8---L\-|
--2--------2--------2-----|-----2--------7----7---L\-|
--0--0--0--0--0--0--0--0--|--0--0--0--0--------------|
--------------------------|--------------------------|
--------------------------|--------------------------|


     PM PM    PM PM    PM    PM    PM PM                  PM PM    PM PM    PM  
  E  E  E  E  E  E  E  E     E  E  E  E  Q    E  E     E  E  E  E  E  E  E  E   
--------------------------|--------------3----2--3--|--------------------------|
--------------------------|--------------3----3--3--|--------------------------|
--2--------2--------2-----|-----2--------2----2--2--|--2--------2--------2-----|
--2--------2--------2-----|-----2--------0----0-----|--2--------2--------2-----|
--0--0--0--0--0--0--0--0--|--0--0--0--0-------------|--0--0--0--0--0--0--0--0--|
--------------------------|-------------------------|--------------------------|


  PM    PM PM                                                            
  E  E  E  E  Q    E  E     H        E  E   E  E     Q.     E  H         
--------------3----2--3--|--0--------L------------|---------0--L--------|
--------------3----3--3--|--0--------L------------|---------0--L--------|
-----2--------2----2--2--|--1--------L------------|---------1--L--------|
-----2--------0----0-----|--2--------L---------2--|--L------2--L--------|
--0--0--0--0-------------|--2--------L------------|---------------------|
-------------------------|--0--------L--3h--4-----|---------------------|


                                                 PM                   
  Q.     E  Q    E  E     W                   E  E  Q    E  E  E  E   
--------------------3--|--L----------------|----------------------3--|
--------------------3--|--L----------------|--2-----2-------------3--|
---------2--L-------0--|--L----------------|--2-----2-------2-----0--|
---------4--L-------0--|--L----------------|--2-----2-------4-----0--|
---------4--L----------|-------------------|--0--0--0-------4--------|
--2------2--L-------3--|--L----------------|----------------2-----3--|


                         PM                                          
  W                   E  E  Q    E  E  E  E     H        E  E  Q     
--L----------------|----------------------3--|--L--------L-----2----|
--L----------------|--2-----2-------------3--|--L--------L-----3----|
--L----------------|--2-----2-------2-----0--|--L--------L-----2----|
--L----------------|--2-----2-------4-----0--|--L--------L-----0----|
-------------------|--0--0--0-------4--------|----------------------|
--L----------------|----------------2-----3--|--L--------L----------|


     PM                                            PM                   
  E  E  Q    E  E  E  E     W                   E  E  Q    E  E  E  E   
----------------------3--|--L----------------|----------------------3--|
--2-----2-------------3--|--L----------------|--2-----2-------------3--|
--2-----2-------2-----0--|--L----------------|--2-----2-------2-----0--|
--2-----2-------4-----0--|--L----------------|--2-----2-------4-----0--|
--0--0--0-------4--------|-------------------|--0--0--0-------4--------|
----------------2-----3--|--L----------------|----------------2-----3--|


                           PM                                       
  H        Q    Q       E  E  Q    E  E  E  E     W                 
--L------------------|----------------------3--|--L----------------|
--L--------5----5----|--2-----2-------------3--|--L----------------|
--L--------5----5----|--2-----2-------2-----0--|--L----------------|
--L--------5----5----|--2-----2-------4-----0--|--L----------------|
-----------3----3----|--0--0--0-------4--------|-------------------|
--L------------------|----------------2-----3--|--L----------------|


     PM                                               PM                   
  E  E  Q    E  E  E  E     H        E  E  Q       E  E  Q    E  E  E  E   
----------------------3--|--L--------L-----2----|----------------------3--|
--2-----2-------------3--|--L--------L-----3----|--2-----2-------------3--|
--2-----2-------2-----0--|--L--------L-----2----|--2-----2-------2-----0--|
--2-----2-------4-----0--|--L--------L-----0----|--2-----2-------4-----0--|
--0--0--0-------4--------|----------------------|--0--0--0-------4--------|
----------------2-----3--|--L--------L----------|----------------2-----3--|


                         PM                                          
  W                   E  E  Q    E  E  E  E     H        E.  S Q     
--L----------------|----------------------3--|--L-------------------|
--L----------------|--2-----2-------------3--|--L--------5-----5----|
--L----------------|--2-----2-------2-----0--|--L--------5-----5----|
--L----------------|--2-----2-------4-----0--|--L--------5-----5----|
-------------------|--0--0--0-------4--------|-----------3-----3----|
--L----------------|----------------2-----3--|--L-------------------|


     PM PM    PM PM    PM    PM PM    PM    PM        
  E  E  E  E  E  E  E  E     E  E  E  E  E  E  E  E   
--------------------------|--------3-----2-----2--3--|
--------------------------|--------3-----3-----3--3--|
--2--------2--------2-----|--------2-----2-----2--2--|
--2--------2--------2-----|--------0-----0-----0-----|
--0--0--0--0--0--0--0--0--|--0--0-----0-----0--------|
--------------------------|--------------------------|


     PM PM    PM PM    PM    PM PM    PM    PM            PM PM    PM PM    PM  
  E  E  E  E  E  E  E  E     E  E  E  E  E  E  Q       E  E  E  E  E  E  E  E   
--------------------------|-------------------------|--------------------------|
--------------------------|-------------------------|--------------------------|
--2--------2--------2-----|-------------------------|--2--------2--------2-----|
--2--------2--------2-----|--------5-----4----------|--2--------2--------2-----|
--0--0--0--0--0--0--0--0--|--0--0-----0-----0--3----|--0--0--0--0--0--0--0--0--|
--------------------------|-------------------------|--------------------------|


  PM PM    PM    PM         PM PM PM PM PM PM PM PM    PM PM PM PM PM PM PM PM  
  E  E  E  E  E  E  Q       E  E  E  E  E  E  E  E     E  E  E  E  E  E  E  E   
--------3-----2-----3----|--------------------------|--------------------------|
--------3-----3-----3----|--------------------------|--------------------------|
--------2-----2-----2----|--------------------------|--------------------------|
--------0-----0-----0----|--------------------------|--------------------------|
--0--0-----0-----0-------|--3--0--0--5--0--0--3--0--|--3--0--0--5--0--0--3--0--|
-------------------------|--------------------------|--------------------------|


  PM PM PM PM PM PM PM PM                            
  E  E  E  E  E  E  E  E     E  E  E  H        E     
--------------------------|------------------------||
--------------------------|------------------------||
--------------------------|-----------2--------L\--||
--------------------------|-----------2--------L\--||
--3--0--0--5--0--0--3--0--|--3--0-----0--------L\--||
--------------------------|--------3---------------||





==================================================================================
==================================================================================


Guitar - leads



     W                   W                   H        Q    E  E   
E||-------------------|-------------------|----------------------|
B||-------------------|-------------------|----------------------|
G||-------------------|-------------------|----------------------|
D||-------------------|-------------------|-------------------x--|
A||-------------------|-------------------|----------------------|
E||-------------------|-------------------|----------------------|


    NH                    \3                                         
    W                     H        Q     Q         W                 
---------------------|-------------------------|--------------------|
---------------------|-------------------------|--10----------------|
--<>5----------------|--<>L--------x\----------|--------------------|
---------------------|-------------x\----x/----|--------------------|
---------------------|-------------------x/----|--------------------|
---------------------|-------------------------|--------------------|


   H        E   E    E   E      H         Q.      E      W                  
----------------------------|------------------------|---------------------|
---L--------------------10--|---L---------L----------|---------------------|
------------9------------9--|---L---------L-------x--|---L\----------------|
---------------10h--11------|------------------------|---------------------|
----------------------------|------------------------|---------------------|
----------------------------|------------------------|---------------------|


                              \3                            
                                                |---3---|   
      W                       Q.      E   Q     E   E   E   
--15g15pbr----------------|---L----------------------------|
--------------------------|----------13---L------------13--|
--------------------------|--------------------14--14------|
--------------------------|--------------------------------|
--------------------------|--------------------------------|
--------------------------|--------------------------------|


   Q.       E   E   E   E   E      E   E   E   E   Q     Q      
-------------------------------|-------------------------------|
-----------13---L--------------|-------------------------------|
--14~--------------14--12------|-------------------------------|
---------------------------14--|--13--12--10--10---L-----x/----|
-------------------------------|-------------------------------|
-------------------------------|-------------------------------|


  E  E   Q    S S S  S S  S S S    S S S S S S S  S Q    Q      
--------------5-----------------|------------------------------|
--5-------------8-8p-5----5---5-|------------------------------|
-----7b--L-------------7b---7---|--8-7-5---7---5h-7-5----------|
--------------------------------|--------7---7-----------------|
--------------------------------|------------------------x/----|
--------------------------------|------------------------------|


  E  E  E    E  E  E  E  E     E  E  E  E  H            W                 
----------------------5-----|-----5-----5--L~--------|-------------------|
----------------------------|------------------------|-------------------|
-----5--6--<>7--5--6-----5--|--6---------------------|-------------------|
--7-------------------------|------------------------|-------------------|
----------------------------|------------------------|-------------------|
----------------------------|------------------------|-------------------|


  W                   W                   W                   W                 
-------------------|-------------------|-------------------|-------------------|
-------------------|-------------------|-------------------|-------------------|
-------------------|-------------------|-------------------|-------------------|
-------------------|-------------------|-------------------|-------------------|
-------------------|-------------------|-------------------|-------------------|
-------------------|-------------------|-------------------|-------------------|


  W                   E  S S S S E  S S S S E  S S  
-------------------|--5--x-x-x-x-5--x-x-x-x-5--x-x-|
-------------------|--5--x-x-x-x-5--x-x-x-x-5--x-x-|
-------------------|-------------------------------|
-------------------|-------------------------------|
-------------------|-------------------------------|
-------------------|-------------------------------|


  S S E  S S S S  Q     Q       W                   W                 
--x-x-5--x-x-x-x-10----------|-------------------|-------------------|
--x-x-5--x-x-x-x-10----10----|-------------------|-------------------|
------------------------9----|-------------------|-------------------|
-----------------------------|-------------------|-------------------|
-----------------------------|-------------------|-------------------|
-----------------------------|-------------------|-------------------|


  W                   W                   W                   W                 
-------------------|-------------------|-------------------|-------------------|
-------------------|-------------------|-------------------|-------------------|
-------------------|-------------------|-------------------|-------------------|
-------------------|-------------------|-------------------|-------------------|
-------------------|-------------------|-------------------|-------------------|
-------------------|-------------------|-------------------|-------------------|


   E   E    E      S   S  E   E    Q     
----------------------------------------|
------15b---Lpbr---Lp-13-15--15b---L----|
---x------------------------------------|
----------------------------------------|
----------------------------------------|
----------------------------------------|


   S   S  S   S  S   S  S  S     H              W                 
--17p-15------------------------------------|--------------------|
---------17p-15-20p-17----17----------------|--------------------|
-----------------------19----19g19pb--------|--19----------------|
--------------------------------------------|--------------------|
--------------------------------------------|--------------------|
--------------------------------------------|--------------------|


  W                   W                   W                   W                 
-------------------|-------------------|-------------------|-------------------|
-------------------|-------------------|-------------------|-------------------|
-------------------|-------------------|-------------------|-------------------|
-------------------|-------------------|-------------------|-------------------|
-------------------|-------------------|-------------------|-------------------|
-------------------|-------------------|-------------------|-------------------|


  W                   W                   W                   W                 
-------------------|-------------------|-------------------|-------------------|
-------------------|-------------------|-------------------|-------------------|
-------------------|-------------------|-------------------|-------------------|
-------------------|-------------------|-------------------|-------------------|
-------------------|-------------------|-------------------|-------------------|
-------------------|-------------------|-------------------|-------------------|


  W                   W                   W                 
-------------------|-------------------|-------------------|
-------------------|-------------------|-------------------|
-------------------|-------------------|-------------------|
-------------------|-------------------|-------------------|
-------------------|-------------------|-------------------|
-------------------|-------------------|-------------------|


       \1    /0    \1    /0    NH      NH                        
  E    E.    E.    E.    E.    E       E      E   H.             
----------------------------------|-----------------------------|
----------------------------------|-------20g20--20~------------|
-----<>5---<>L---<>5---<>L---<>5--|--<>L------------------------|
----------------------------------|-----------------------------|
----------------------------------|-----------------------------|
----------------------------------|-----------------------------|


  E   Q.       E     S  S S  S E      H.           Q        W                 
-----------------------------------|---------------------|-------------------|
--8b--Lpb------Lpbr--Lp-5-8b-L-8b--|--L------------------|-------------------|
-----------------------------------|---------------x\----|-------------------|
-----------------------------------|---------------------|-------------------|
-----------------------------------|---------------------|-------------------|
-----------------------------------|---------------------|-------------------|


  W                   W                   W                   W                 
-------------------|-------------------|-------------------|-------------------|
-------------------|-------------------|-------------------|-------------------|
-------------------|-------------------|-------------------|-------------------|
-------------------|-------------------|-------------------|-------------------|
-------------------|-------------------|-------------------|-------------------|
-------------------|-------------------|-------------------|-------------------|


  W                   E   E    Q       E      S   S  E   E   
-------------------|--------------------------------17--17--|
-------------------|-----20b---Lpb-----Lpbr---Lp-15---------|
-------------------|----------------------------------------|
-------------------|----------------------------------------|
-------------------|----------------------------------------|
-------------------|----------------------------------------|


   H.            Q        W                   W                 
---L~------------------|-------------------|-------------------|
-----------------------|-------------------|-------------------|
-----------------------|-------------------|-------------------|
-----------------x\----|-------------------|-------------------|
-----------------------|-------------------|-------------------|
-----------------------|-------------------|-------------------|


  W                   W                   W                   W                 
-------------------|-------------------|-------------------|-------------------|
-------------------|-------------------|-------------------|-------------------|
-------------------|-------------------|-------------------|-------------------|
-------------------|-------------------|-------------------|-------------------|
-------------------|-------------------|-------------------|-------------------|
-------------------|-------------------|-------------------|-------------------|


  W                   W                   W                   W                 
-------------------|-------------------|-------------------|-------------------|
-------------------|-------------------|-------------------|-------------------|
-------------------|-------------------|-------------------|-------------------|
-------------------|-------------------|-------------------|-------------------|
-------------------|-------------------|-------------------|-------------------|
-------------------|-------------------|-------------------|-------------------|


  W                   W                   W                   W                 
-------------------|-------------------|-------------------|-------------------|
-------------------|-------------------|-------------------|-------------------|
-------------------|-------------------|-------------------|-------------------|
-------------------|-------------------|-------------------|-------------------|
-------------------|-------------------|-------------------|-------------------|
-------------------|-------------------|-------------------|-------------------|


  W                   W                   W                   W                 
-------------------|-------------------|-------------------|-------------------|
-------------------|-------------------|-------------------|-------------------|
-------------------|-------------------|-------------------|-------------------|
-------------------|-------------------|-------------------|-------------------|
-------------------|-------------------|-------------------|-------------------|
-------------------|-------------------|-------------------|-------------------|


  W                   W                   W                   W                 
-------------------|-------------------|-------------------|-------------------|
-------------------|-------------------|-------------------|-------------------|
-------------------|-------------------|-------------------|-------------------|
-------------------|-------------------|-------------------|-------------------|
-------------------|-------------------|-------------------|-------------------|
-------------------|-------------------|-------------------|-------------------|


  W                   W                   W                 
-------------------|-------------------|-------------------|
-------------------|-------------------|-------------------|
-------------------|-------------------|-------------------|
-------------------|-------------------|--7----------------|
-------------------|-------------------|-------------------|
-------------------|-------------------|-------------------|


     PM PM PM                                                           
  E  E  E  E  E   Q      E        W                   W                 
-------------------------------|-------------------|-------------------|
-------------------------------|-------------------|-------------------|
--------6--7--7b--Lpb----Lpbr--|--L----------------|--L----------------|
-----7-------------------------|-------------------|-------------------|
-------------------------------|-------------------|-------------------|
-------------------------------|-------------------|-------------------|


              PM PM PM                                                      
  H        E  E  E  E     H.           E   E     E   E  E  E  E  S  S Q     
-----------------------|----------------------|----------------------------|
-----------------------|--8-------------------|----------------------------|
--L--------------6--7--|---------------7p--6--|--7p--6---------------------|
--------------7--------|----------------------|---------7--5--L--7p-5-L----|
-----------------------|----------------------|----------------------------|
-----------------------|----------------------|----------------------------|


  E  H.           S  S     W                    H         E   Q     E   
-----------------------|--------------------|----------------10p----9--|
-----------------------|--10----------------|---L---------L------------|
------------------7s-9-|--------------------|--------------------------|
-----L-----------------|--------------------|--------------------------|
-----------------------|--------------------|--------------------------|
-----------------------|--------------------|--------------------------|


   H        E   E  Q       H.           Q         W                 
--10--------9-----------|---------------------|--15----------------|
---------------10--8----|--L------------------|--------------------|
------------------------|---------------x/----|--------------------|
------------------------|---------------------|--------------------|
------------------------|---------------------|--------------------|
------------------------|---------------------|--------------------|


                                                                  \4            
   W                    E    Q     E    Q     E    E        E  E  H.            
---L----------------|--15b---L----15b---L----15b---Lpb--|---L--0--L------------|
--------------------|-----------------------------------|------0--L------------|
--------------------|-----------------------------------|------0--L------------|
--------------------|-----------------------------------|----------------------|
--------------------|-----------------------------------|----------------------|
--------------------|-----------------------------------|----------------------|


    E  E  E    E  E  E    E  E     E   Q.     E  S  S S  S  S S  
--------------------------------|-------------------------------|
--7g8--8--8--7g8--8--8--7g8--8--|--8--10------------------------|
--8g9--9--9--8g9--9--9--8g9--9--|--9---9------7--7p-5-7p-5h-7---|
--------------------------------|-----------------------------7-|
--------------------------------|-------------------------------|
--------------------------------|-------------------------------|


  Q    E  E  S  S E  E  E     Q.     E  H          
---------------------------|----------------------|
---------------------------|----------------------|
--5------------------------|---------5--L~--------|
-------7--7--7p-5----5--7--|--L-------------------|
------------------7--------|----------------------|
---------------------------|----------------------|


  S  S S  S S  S S  S S  S S  S S  S S  S    S  S S  S S S S S S S S S S S E   
--8p-5-8p-5------8p-5-8p-5------8p-5-8p-5-|-----------------------------------|
------------8p-5-----------8p-5-----------|--8p-5-8p-5---5---5----------------|
------------------------------------------|------------8---8---8-7-5---7---5--|
------------------------------------------|--------------------------7---7----|
------------------------------------------|-----------------------------------|
------------------------------------------|-----------------------------------|


  E  E  E  E  E  E  E  E     E  Q.     Q     Q      
--------------------------|------------------------|
--------------------------|------------------------|
--L-----------------------|------------------------|
-----7--7--7--7--5--------|------------------------|
--------------------7--6--|--5--3------L-----x/----|
--------------------------|------------------------|


   E    E     E   E     E      E   E      E   
-------------15------------------------------|
--15b---Lpb------15pb---Lpbr---L--13--15g15--|
---------------------------------------------|
---------------------------------------------|
---------------------------------------------|
---------------------------------------------|


  E   E    Q       Q     E     S   S  
-------------------------------------|
-----15b---Lpb-----L----15br---Lp-13-|
-------------------------------------|
-------------------------------------|
-------------------------------------|
-------------------------------------|


   E    E     E   E     E      E   E   E       E   E    Q    H          
-------------15-----------------------15b--|---L--15b---L--------------|
--15b---Lpb------15pb---Lpbr---L--13-------|---------------------------|
-------------------------------------------|-----------------x\--------|
-------------------------------------------|---------------------------|
-------------------------------------------|---------------------------|
-------------------------------------------|---------------------------|


   E   S   S  S  S   S  S  S   S  S  S   S  S  S  S  
----------------------------------------------------|
----------------------------------------------------|
------17s-16----16s-14----14s-12----12s-11----11s-9-|
----------------------------------------------------|
--19---------17--------15--------14--------12-------|
----------------------------------------------------|


   S S  S S S  S S S Q    E  E     S  S S S E  E  E  E  E  E   
--------------------------------|-----------------------------|
--------------------------------|-----------------------------|
-----9s-7---7s-5---5-L----------|-----------------------------|
--------------------------7-----|--7p-5---5-7--------------7--|
--10------9------7--------------|-------7------7--6--5--4-----|
-----------------------------8--|-----------------------------|


  E    Q.     Q.     E       H.               E   E     W                 
-------------------------|---------------------------|-------------------|
-------------------------|---------------------------|-------------------|
-------------------------|--11pbr-------------Lp--9--|--L----------------|
-----5g7------L------x/--|---------------------------|-------------------|
-------------------------|---------------------------|-------------------|
-------------------------|---------------------------|-------------------|


   E   E   E   E    Q        E   E      H          E   E   E   E   
------------------------------------|-----------------17--15--17--|
------10--12--12b---Lpbr-----L--10--|---L--------/17--------------|
--11--------------------------------|-----------------------------|
------------------------------------|-----------------------------|
------------------------------------|-----------------------------|
------------------------------------|-----------------------------|


   W                    H        H           W                 
---L----------------|---L-----------------|-------------------|
--------------------|---------------------|-------------------|
--------------------|---------------------|-------------------|
--------------------|---------------------|-------------------|
--------------------|---------------------|-------------------|
--------------------|---------------------|-------------------|


  W                   W                   W                 
-------------------|-------------------|-------------------|
-------------------|-------------------|-------------------|
-------------------|-------------------|-------------------|
-------------------|-------------------|-------------------|
-------------------|-------------------|-------------------|
-------------------|-------------------|-------------------|


  H        S  S  S  S  S   S     E      H.            Q       W                 
-------------17---------------------|----------------------|-------------------|
----------------20-17-20b--Lpbr--L--|---L\-----------------|-------------------|
------------------------------------|----------------------|-------------------|
------------------------------------|----------------------|-------------------|
------------------------------------|----------------------|-------------------|
------------------------------------|----------------------|-------------------|


  W                   W                   W                                     
-------------------|-------------------|-------------------|-------------------|
-------------------|-------------------|-------------------|-------------------|
-------------------|-------------------|-------------------|-------------------|
-------------------|-------------------|-------------------|-------------------|
-------------------|-------------------|-------------------|-------------------|
-------------------|-------------------|-------------------|-------------------|


                                          W                 
-------------------|-------------------|-------------------|
-------------------|-------------------|-------------------|
-------------------|-------------------|-------------------|
-------------------|-------------------|-------------------|
-------------------|-------------------|-------------------|
-------------------|-------------------|-------------------|


  Q    E   E    Q.      E       H.            Q     
----------------------------|----------------------|
----------20b---L------20b--|---L~-----------------|
----------------------------|----------------------|
----------------------------|----------------------|
----------------------------|----------------------|
----------------------------|----------------------|


  E   Q.     S   S  S S E  E     W                 
------------------------------|-------------------|
------------------------------|-------------------|
--7b--L------7br-Lp-5---5-----|-------------------|
----------------------7----7--|--L----------------|
------------------------------|-------------------|
------------------------------|-------------------|


                           T              T           T                 
   |------3------|                                                      
   Q      Q      Q     E   E    Q         E    Q      E   Q     E   E   
--------------------------------------|----------------------------17--|
--10h----13p----10-----L--15p--10h----|--17p--10h----20---L----20------|
--------------------------------------|--------------------------------|
--------------------------------------|--------------------------------|
--------------------------------------|--------------------------------|
--------------------------------------|--------------------------------|


   E    Q     E    Q     S    S   S  S     E    Q     E    Q     S    S   S  S  
---------------------------------------|---------------------------------------|
--20b---L----20b---L-------------------|--20b---L----20b---L-------------------|
------------------------19br--Lp-17----|------------------------19br--Lp-17----|
------------------------------------19-|------------------------------------19-|
---------------------------------------|---------------------------------------|
---------------------------------------|---------------------------------------|


   E    Q     E   H            E  E  E  E  H           
--20b---L----20---L~--------|------------------------||
----------------------------|------------------------||
----------------------------|--5---------------------||
----------------------------|-----7--5--7--L\--------||
----------------------------|------------------------||
----------------------------|------------------------||




Duration Legend
---------------
W - whole
H - half
Q - quarter
E - 8th
S - 16th
T - 32nd
X - 64th
. - note dotted
|-n-|  - n-tuplets


Tablature Legend
----------------
L - tied note
x - dead note
g - grace note
(n) - ghost note
> - accentuded note
NH - natural harmonic
AH - artificial harmonic
TH - tapped harmonic
SH - semi harmonic
PH - pitch harmonic
h - hammer on
p - pull off
b - bend
br - bendRelease
pb - preBend
pbr - preBendRelease
brb - bendReleaseBend
\n/ - tremolo bar dip
\n - tremolo bar dive
-/n - tremolo bar Release up
/n\ - tremolo bar inverted dip
/n - tremolo bar return
-\n - tremolo bar Release down
S - shift slide
s - legato slide
/ -  slide into from below or out of upwards
\ -  slide into from above or out of downwards
~ - vibrato
W - wide vibrato
tr - trill
TP - tremolo picking
T - tapping
S - slap
P - pop
< - fade in
^ - brush up
v - brush down
comments
We did not receive enough feedback on this tab! Please rate:
print report bad tab
1 2 3 4 5
I want to post or [tab]
guest
You may want to rate the tab now too:
select rating
Please do not post tabs as comments. Select "correction" instead!