Oops, an error
Loading. Please wait.

Never Change Heart Tab

ver1
ver1

Whole song

Interactive

More versions @911Tabs.com
261 views 3 this week
no commentswrite comment
1 2 3 4 5
please rate
Autoscroll
+/-
esc
set tempo
stop
Contributor
Difficulty
intermediate
Hey! There's an official Ultimate Guitar app which is ideal
for learning songs when you're away from computer. Get the app
WARNING: You are trying to view
                                    content from Ultimate-Guitar.com
                                    in an unauthorized application,
                                    which is prohibited.

                                    Please use an official Ultimate
                                    Guitar Tabs application for iPhone,
                                    iPad or Android to access legitimate
                                    chords, guitar, bass, and drum tabs
                                    from Ultimate-Guitar.com database.

                                    Type "ultimate guitar tabs" in Apple
                                    App Store's or Android Market's
                                    search to find the application.
-----------------------------------------------------------------------------
                      Never change Heart - Great White (GUITAR)
                       
-----------------------------------------------------------------------------
Tabbed by: Scotto10

Tuning: Standard

=============================================================================

Guitar - rhythm



                         ^                   ^                 
     W                   W                   W                 
E||-------------------|--3----------------|--2----------------|
B||-------------------|--0----------------|--0----------------|
G||-------------------|--0----------------|--0----------------|
D||-------------------|--2----------------|--2----------------|
A||-------------------|-------------------|-------------------|
E||-------------------|-------------------|-------------------|


  ^                   ^                   ^                   ^                 
  W                   W                   W                   W                 
--3----------------|--2----------------|--3----------------|--2----------------|
--0----------------|--0----------------|--0----------------|--0----------------|
--0----------------|--0----------------|--0----------------|--0----------------|
--2----------------|--2----------------|--2----------------|--2----------------|
-------------------|-------------------|-------------------|-------------------|
-------------------|-------------------|-------------------|-------------------|


  ^                   ^                   ^                   ^                 
  W                   W                   W                   W                 
--3----------------|--2----------------|--0----------------|--2----------------|
--0----------------|--0----------------|--0----------------|--3----------------|
--0----------------|--0----------------|--5----------------|--4----------------|
--2----------------|--2----------------|-------------------|-------------------|
-------------------|-------------------|-------------------|-------------------|
-------------------|-------------------|-------------------|-------------------|


   |-3-|  3         3            3                         
   E   S  H         H         E  E     H.           E  E   
---------12---------L---------L-----|---------------------|
------12----------------------------|------------------0--|
--12--------------------------------|---------------2-----|
------------------------------------|---------------0--2--|
------------------------------------|---------------------|
------------------------------------|---------------------|


  H.           E  E     H.           E  E     H.           E  E   
---------------------|---------------------|------------------0--|
--L------------0-----|---------------0--3--|--L------------3-----|
------------------2--|--L---------------0--|--L------------0--2--|
--L------------2--2--|--L------------4-----|---------------------|
---------------------|---------------------|---------------------|
---------------------|---------------------|---------------------|


  H.           E  E     H.           E  E     H.           E  E   
--L------------------|---------------------|---------------------|
------------------0--|--L------------0-----|---------------0--3--|
--L------------2-----|------------------2--|--L---------------0--|
---------------0--2--|--L------------2--2--|--L------------4-----|
---------------------|---------------------|---------------------|
---------------------|---------------------|---------------------|


  H.           E  E     E  E  E  Q    E  E  E     H.           E  E   
---------------------|-------------------------|---------------------|
--L------------------|-------------------------|---------------0-----|
--L------------------|--------0-------0-----4--|--L---------------2--|
---------------------|-----4-------------4--2--|--L------------2--2--|
------------------5--|--L--------3-------5-----|---------------------|
---------------------|-------------------------|---------------------|


  H.           E  E     H.           E  E     H.           E  E   
---------------------|------------------0--|--L------------------|
---------------0--3--|--L------------3-----|------------------0--|
--L---------------0--|--L------------0--2--|--L------------2-----|
--L------------4-----|---------------------|---------------0--2--|
---------------------|---------------------|---------------------|
---------------------|---------------------|---------------------|


  H.           E  E     H.           E  E     H.           E  E   
---------------------|---------------------|---------------------|
--L------------0-----|---------------0--3--|--L------------------|
------------------2--|--L---------------0--|--L------------------|
--L------------2--2--|--L------------4-----|---------------------|
---------------------|---------------------|------------------5--|
---------------------|---------------------|---------------------|


  E  E  E  Q    E  E  E     H.           E  E     H.           E  E   
-------------------------|---------------------|---------------------|
-------------------------|---------------------|---------------------|
--------0-------0-----4--|--L------------4--2--|--L------------4--7--|
-----4-------------4--2--|--L------------2--2--|--L------------4--5--|
--L--------3-------5-----|---------------------|---------------------|
-------------------------|---------------------|---------------------|


  H.           E  E     H.           E  E     H.           E  E   
---------------------|---------------------|---------------------|
--L------------------|---------------------|---------------------|
--L------------7--9--|--L------------2--4--|--L------------4--2--|
--L------------5--7--|--L------------0--2--|--L------------2--2--|
---------------------|---------------------|---------------------|
---------------------|---------------------|---------------------|


  H.           E  E     H.           E  E     Q.     H        E   
---------------------|---------------------|---------------------|
---------------------|---------------------|---------------------|
--L------------4--5--|--L------------------|---------------------|
--L------------4--5--|--L---------------7--|--L------7-----------|
------------------3--|--L---------------5--|--L------6-----------|
---------------------|---------------------|---------------------|


     PM PM    PM PM PM PM         PM    PM PM PM PM                            
  E  E  E  E  E  E  E  E     Q    E  E  E  E  E  E     E  E  E  E  E  Q    E   
--------------------------|-------------------------|-------------------------|
--5-----------------------|--3-------5--------------|----------------------5--|
--4--------5--------------|--2-------4--------------|--------0--------0----4--|
-----------5--------------|-------------------------|-----2--------4-------2--|
--------------------------|-------------------------|--3--------5-------------|
-----0--0-----0--0--0--0--|-------0-----0--0--0--0--|-------------------------|


            PM PM PM PM       PM PM    PM PM PM PM         PM    PM PM PM PM  
  Q    Q    E  E  E  E     E  E  E  E  E  E  E  E     Q    E  E  E  E  E  E   
------------------------|--------------------------|-------------------------|
--L----5----------------|--5-----------------------|--3-------5--------------|
--L----4----------------|--4--------5--------------|--2-------4--------------|
------------0--2--5--4--|-----------5--------------|-------------------------|
------------------------|--------------------------|-------------------------|
------------------------|-----0--0-----0--0--0--0--|-------0-----0--0--0--0--|


  E  E  E  E  E  Q    E     W                   W                 
-------------------------|-------------------|-------------------|
-------------------------|-------------------|-------------------|
--------0--------0----9--|--L----------------|--9----------------|
-----2--------4-------9--|--L----------------|--9----------------|
--3--------5----------7--|--L----------------|--7----------------|
-------------------------|-------------------|-------------------|


  W                   H        Q    E  E     H        E  E  E  E   
-------------------|----------------------|-----------------------|
-------------------|----------------------|-----------------------|
--9----------------|--9-------------2--4--|--L--------L--x--4--2--|
--9----------------|--9-------------0--2--|--L--------L--x--2--2--|
--7----------------|--7-------------------|-----------------------|
-------------------|----------------------|-----------------------|


  H        E  E  E  E     H        E  E  E  E     H        E  E  E  E   
-----------------------|-----------------------|-----------------------|
-----------------------|--L--------------------|-----------------------|
--L--------L--x--4--7--|--L--------L--x--7--9--|--L--------L--x--2--4--|
--L--------L--x--4--5--|--L--------L--x--5--7--|--L--------L--x--0--2--|
-----------------------|-----------------------|-----------------------|
-----------------------|-----------------------|-----------------------|


  H        E  E  E  E     H        E  E  E  E     H.           E  E   
-----------------------|-----------------------|---------------------|
-----------------------|-----------------------|---------------------|
--L--------L--x--4--2--|--L--------L--x--4--5--|--L------------------|
--L--------L--x--2--2--|--L--------L--x--4--5--|--L---------------7--|
-----------------------|--------------------3--|--L---------------5--|
-----------------------|-----------------------|---------------------|


                           PM PM    PM PM PM PM         PM    PM PM PM PM  
  Q.     H        E     E  E  E  E  E  E  E  E     Q    E  E  E  E  E  E   
---------------------|--------------------------|-------------------------|
---------------------|--5-----------------------|--3-------5--------------|
---------------------|--4--------5--------------|--2-------4--------------|
--L------7-----------|-----------5--------------|-------------------------|
--L------6-----------|--------------------------|-------------------------|
---------------------|-----0--0-----0--0--0--0--|-------0-----0--0--0--0--|


                                      PM PM PM PM       PM PM    PM PM PM PM  
  E  E  E  E  E  Q    E     Q    Q    E  E  E  E     E  E  E  E  E  E  E  E   
-------------------------|------------------------|--------------------------|
----------------------5--|--L----5----------------|--5-----------------------|
--------0--------0----4--|--L----4----------------|--4--------5--------------|
-----2--------4-------2--|------------0--2--5--4--|-----------5--------------|
--3--------5-------------|------------------------|--------------------------|
-------------------------|------------------------|-----0--0-----0--0--0--0--|


       PM    PM PM PM PM                                   PM PM PM PM PM PM  
  Q    E  E  E  E  E  E     E  E  E  E  E  Q    E     Q    E  E  E  E  E  E   
-------------------------|-------------------------|-------------------------|
--3-------5--------------|-------------------------|-------------------------|
--2-------4--------------|--------0--------0----4--|--L----------------------|
-------------------------|-----2--------4-------4--|--L----------------------|
-------------------------|--3--------5----------2--|--L----2--2--2--0--------|
-------0-----0--0--0--0--|-------------------------|-------------------3--2--|


     PM PM    PM PM PM PM         PM    PM PM PM PM                            
  E  E  E  E  E  E  E  E     Q    E  E  E  E  E  E     E  E  E  E  E  Q    E   
--------------------------|-------------------------|-------------------------|
--5-----------------------|--3-------5--------------|----------------------5--|
--4--------5--------------|--2-------4--------------|--------0--------0----4--|
-----------5--------------|-------------------------|-----2--------4-------2--|
--------------------------|-------------------------|--3--------5-------------|
-----0--0-----0--0--0--0--|-------0-----0--0--0--0--|-------------------------|


            PM PM PM PM       PM PM    PM PM PM PM         PM    PM PM PM PM  
  Q    Q    E  E  E  E     E  E  E  E  E  E  E  E     Q    E  E  E  E  E  E   
------------------------|--------------------------|-------------------------|
--L----5----------------|--5-----------------------|--3-------5--------------|
--L----4----------------|--4--------5--------------|--2-------4--------------|
------------0--2--5--4--|-----------5--------------|-------------------------|
------------------------|--------------------------|-------------------------|
------------------------|-----0--0-----0--0--0--0--|-------0-----0--0--0--0--|


  E  E  E  E  E  Q    E     H.           E  E     W                 
-------------------------|---------------------|-------------------|
-------------------------|---------------------|-------------------|
--------0--------0----4--|--L------------L-----|--5----------------|
-----2--------4-------4--|--L------------L-----|--5----------------|
--3--------5----------2--|--L------------L-----|--3----------------|
-------------------------|---------------------|-------------------|


  W                   W                   W                   W                 
-------------------|-------------------|-------------------|-------------------|
-------------------|-------------------|-------------------|-------------------|
-------------------|-------------------|-------------------|-------------------|
--5----------------|--7----------------|--9----------------|--5----------------|
--4----------------|--5----------------|--7----------------|--3----------------|
-------------------|-------------------|-------------------|-------------------|


                                                       PM PM  
  W                   W                   H.           E  E   
-------------------|-------------------|---------------------|
-------------------|-------------------|---------------------|
-------------------|-------------------|---------------------|
--5----------------|--7----------------|--7------------7--7--|
--4----------------|--5----------------|--6------------6--6--|
-------------------|-------------------|---------------------|


  PM PM PM PM PM PM PM PM       PM PM    PM PM PM PM         PM    PM PM PM PM  
  E  E  E  E  E  E  E  E     E  E  E  E  E  E  E  E     Q    E  E  E  E  E  E   
--------------------------|--------------------------|-------------------------|
--------------------------|--------------------------|-------------------------|
--------------------------|--9--------5--------------|--7-------9--------------|
--7--7--7--7--7--7--7--7--|--9--------5--------------|--7-------9--------------|
--6--6--6--6--6--6--6--6--|--7--------3--------------|--5-------7--------------|
--------------------------|-----0--0-----0--0--0--0--|-------0-----0--0--0--0--|


                                                PM PM    PM PM PM PM  
  Q.     H        E     H        H           E  E  E  E  E  E  E  E   
---------------------|--------------------|--------------------------|
---------------------|--------------------|--------------------------|
--5------7--------9--|--L--------9--------|--9--------5--------------|
--5------7--------9--|--L--------9--------|--9--------5--------------|
--3------5--------7--|--L--------7--------|--7--------3--------------|
---------------------|--------------------|-----0--0-----0--0--0--0--|


       PM    PM PM PM PM                                            
  Q    E  E  E  E  E  E     Q.     H        E     W                 
-------------------------|---------------------|-------------------|
-------------------------|---------------------|-------------------|
--7-------9--------------|--5------7--------9--|--L----------------|
--7-------9--------------|--5------7--------9--|--L----------------|
--5-------7--------------|--3------5--------7--|--L----------------|
-------0-----0--0--0--0--|---------------------|-------------------|


     PM PM    PM PM PM PM         PM    PM PM PM PM                        
  E  E  E  E  E  E  E  E     Q    E  E  E  E  E  E     Q.     H        E   
--------------------------|-------------------------|---------------------|
--------------------------|-------------------------|---------------------|
--9--------5--------------|--7-------9--------------|--5------7--------9--|
--9--------5--------------|--7-------9--------------|--5------7--------9--|
--7--------3--------------|--5-------7--------------|--3------5--------7--|
-----0--0-----0--0--0--0--|-------0-----0--0--0--0--|---------------------|


                         PM PM    PM PM PM PM         PM    PM PM PM PM  
  W                   E  E  E  E  E  E  E  E     Q    E  E  E  E  E  E   
-------------------|--------------------------|-------------------------|
-------------------|--------------------------|-------------------------|
--L----------------|--9--------5--------------|--7-------9--------------|
--L----------------|--9--------5--------------|--7-------9--------------|
--L----------------|--7--------3--------------|--5-------7--------------|
-------------------|-----0--0-----0--0--0--0--|-------0-----0--0--0--0--|


  Q.     H        E     W                   W                 
---------------------|-------------------|-------------------|
---------------------|-------------------|-------------------|
--5------7--------9--|-------------------|-------------------|
--5------7--------9--|-------------------|-------------------|
--3------5--------7--|-------------------|-------------------|
---------------------|-------------------|-------------------|


  W                   W                   W                   W                 
-------------------|-------------------|-------------------|-------------------|
-------------------|-------------------|-------------------|-------------------|
-------------------|-------------------|-------------------|-------------------|
-------------------|-------------------|-------------------|-------------------|
-------------------|-------------------|-------------------|-------------------|
-------------------|-------------------|-------------------|-------------------|


  W                   H.           E  E     Q.     H        E   
-------------------|---------------------|---------------------|
-------------------|---------------------|---------------------|
-------------------|---------------------|---------------------|
-------------------|------------------7--|--L------7-----------|
-------------------|------------------5--|--L------6-----------|
-------------------|---------------------|---------------------|


     PM PM    PM PM PM PM         PM    PM PM PM PM                            
  E  E  E  E  E  E  E  E     Q    E  E  E  E  E  E     E  E  E  E  E  Q    E   
--------------------------|-------------------------|-------------------------|
--5-----------------------|--3-------5--------------|----------------------5--|
--4--------5--------------|--2-------4--------------|--------0--------0----4--|
-----------5--------------|-------------------------|-----2--------4-------2--|
--------------------------|-------------------------|--3--------5-------------|
-----0--0-----0--0--0--0--|-------0-----0--0--0--0--|-------------------------|


            PM PM PM PM       PM PM    PM PM PM PM         PM    PM PM PM PM  
  Q    Q    E  E  E  E     E  E  E  E  E  E  E  E     Q    E  E  E  E  E  E   
------------------------|--------------------------|-------------------------|
--L----5----------------|--5-----------------------|--3-------5--------------|
--L----4----------------|--4--------5--------------|--2-------4--------------|
------------0--2--5--4--|-----------5--------------|-------------------------|
------------------------|--------------------------|-------------------------|
------------------------|-----0--0-----0--0--0--0--|-------0-----0--0--0--0--|


                                 PM PM PM PM PM PM       PM PM    PM PM PM PM  
  E  E  E  E  E  Q    E     Q    E  E  E  E  E  E     E  E  E  E  E  E  E  E   
-------------------------|-------------------------|--------------------------|
-------------------------|-------------------------|--5-----------------------|
--------0--------0----4--|--L----------------------|--4--------5--------------|
-----2--------4-------4--|--L----------------------|-----------5--------------|
--3--------5----------2--|--L----2--2--2--0--------|--------------------------|
-------------------------|-------------------3--2--|-----0--0-----0--0--0--0--|


       PM    PM PM PM PM                                        PM PM PM PM  
  Q    E  E  E  E  E  E     E  E  E  E  E  Q    E     Q    Q    E  E  E  E   
-------------------------|-------------------------|------------------------|
--3-------5--------------|----------------------5--|--L----5----------------|
--2-------4--------------|--------0--------0----4--|--L----4----------------|
-------------------------|-----2--------4-------2--|------------0--2--5--4--|
-------------------------|--3--------5-------------|------------------------|
-------0-----0--0--0--0--|-------------------------|------------------------|


     PM PM    PM PM PM PM         PM    PM PM PM PM                            
  E  E  E  E  E  E  E  E     Q    E  E  E  E  E  E     E  E  E  E  E  Q    E   
--------------------------|-------------------------|-------------------------|
--5-----------------------|--3-------5--------------|-------------------------|
--4--------5--------------|--2-------4--------------|--------0--------0----4--|
-----------5--------------|-------------------------|-----2--------4-------4--|
--------------------------|-------------------------|--3--------5----------2--|
-----0--0-----0--0--0--0--|-------0-----0--0--0--0--|-------------------------|


       PM PM PM PM PM PM       PM PM    PM PM PM PM         PM    PM PM PM PM  
  Q    E  E  E  E  E  E     E  E  E  E  E  E  E  E     Q    E  E  E  E  E  E   
-------------------------|--------------------------|-------------------------|
-------------------------|--5-----------------------|--3-------5--------------|
--L----------------------|--4--------5--------------|--2-------4--------------|
--L----------------------|-----------5--------------|-------------------------|
--L----2--2--2--0--------|--------------------------|-------------------------|
-------------------3--2--|-----0--0-----0--0--0--0--|-------0-----0--0--0--0--|


     PM PM    PM PM PM PM         PM    PM PM PM PM       PM PM    PM PM PM PM  
  E  E  E  E  E  E  E  E     Q    E  E  E  E  E  E     E  E  E  E  E  E  E  E   
--------------------------|-------------------------|--------------------------|
--5-----------------------|--3-------5--------------|--5-----------------------|
--4--------5--------------|--2-------4--------------|--4--------5--------------|
-----------5--------------|-------------------------|-----------5--------------|
--------------------------|-------------------------|--------------------------|
-----0--0-----0--0--0--0--|-------0-----0--0--0--0--|-----0--0-----0--0--0--0--|


       PM    PM PM PM PM       PM PM    PM PM PM PM         PM    PM PM PM PM  
  Q    E  E  E  E  E  E     E  E  E  E  E  E  E  E     Q    E  E  E  E  E  E   
-------------------------|--------------------------|-------------------------|
--3-------5--------------|--5-----------------------|--3-------5--------------|
--2-------4--------------|--4--------5--------------|--2-------4--------------|
-------------------------|-----------5--------------|-------------------------|
-------------------------|--------------------------|-------------------------|
-------0-----0--0--0--0--|-----0--0-----0--0--0--0--|-------0-----0--0--0--0--|


     PM PM    PM PM PM PM         PM    PM PM PM PM       PM PM    PM PM PM PM  
  E  E  E  E  E  E  E  E     Q    E  E  E  E  E  E     E  E  E  E  E  E  E  E   
--------------------------|-------------------------|--------------------------|
--5-----------------------|--3-------5--------------|--5-----------------------|
--4--------5--------------|--2-------4--------------|--4--------5--------------|
-----------5--------------|-------------------------|-----------5--------------|
--------------------------|-------------------------|--------------------------|
-----0--0-----0--0--0--0--|-------0-----0--0--0--0--|-----0--0-----0--0--0--0--|


       PM               
  Q    E  E  H          
----------------------||
--3-------5-----------||
--2-------4-----------||
----------------------||
----------------------||
-------0--------------||




==========================================================================
==========================================================================



Harmonics at the beginning of the song



                                        NH    NH    NH                      
     W                   H        E     E     E     E     W                 
E||-------------------|--------------------------<>12--|-------------------|
B||-------------------|--------------------<>12--------|-------------------|
G||-------------------|--------------<>12--------------|-------------------|
D||-------------------|--------------------------------|-------------------|
A||-------------------|--------------------------------|-------------------|
E||-------------------|--------------------------------|-------------------|


                NH   NH   NH                                       NH      NH  
  H        E    E    E    E     W                   H        E     Q       E   
------------------------<>5--|-------------------|--------------<>12----------|
-------------------<>5-------|-------------------|----------------------<>12--|
--------------<>5------------|-------------------|----------------------------|
-----------------------------|-------------------|----------------------------|
-----------------------------|-------------------|----------------------------|
-----------------------------|-------------------|----------------------------|


                                      NH   NH                       NH  NH 
  W                   H        Q      E    E     H        Q    E    S   S  
-------------------|--------------------------|---------------------------|
-------------------|---------------------<>5--|-----------------------<>5-|
-------------------|----------------<>5-------|-------------------<>5-----|
-------------------|--------------------------|---------------------------|
-------------------|--------------------------|---------------------------|
-------------------|--------------------------|---------------------------|


             NH     NH                                            
  H          Q      Q       W                   W                 
-------------------------|-------------------|-------------------|
------------------<>7----|-------------------|-------------------|
-----------<>5-----------|-------------------|-------------------|
-------------------------|-------------------|-------------------|
-------------------------|-------------------|-------------------|
-------------------------|-------------------|-------------------|


==========================================================================
==========================================================================




Guitar - clean part under the rhythm. Listen for timing






  E  E  E  E  E  Q    E     W                   W                 
-------------------------|-------------------|-------------------|
-------------------------|-------------------|-------------------|
--------0--------0-------|-------------------|-------------------|
-----2--------4----------|-------------------|-------------------|
--3--------5-------------|-------------------|-------------------|
----------------------0--|-------------------|-------------------|


  W                   E  E  E  E  E  Q    E     H.           E  E   
-------------------|-------------------------|------------------2--|
-------------------|----------------------0--|--L---------------3--|
-------------------|--------0--------0----0--|--L---------------2--|
-------------------|-----2--------4-------2--|--L---------------0--|
-------------------|--3--------5----------2--|--L------------------|
-------------------|----------------------0--|--L------------------|


  H.           E  E     H.           E  E     H        H                     
--L---------------0--|--L---------------2--|--L-----------------|-----------|
--L---------------1--|--L---------------3--|--L-----------------|-----------|
--L---------------0--|--L---------------2--|--L-----------------|-----------|
--L---------------2--|--L---------------0--|--L-----------------|-----------|
------------------3--|--L------------------|--------------------|-----------|
---------------------|---------------------|--------------------|-----------|


============================================================================
============================================================================



Guitar - solo






  Notes are tapped while the 2nd fret note is bent                   
                                                    T                
  Q.                                                Q     Q.         
--------------------------------------------------------------------|
--------------------------------------------------------------------|
--2b------------------------------------------------5b----2pbr------|
--------------------------------------------------------------------|
--------------------------------------------------------------------|
--------------------------------------------------------------------|


          T                  PM PM PM                          
                             |--3--|                           
  Q.      Q     Q.           S  S  S  E.  E.  E  E  S S  S  S  
--------------------------|-----------------------------------|
--------------------------|--------5--8---5---8--5--8-5s-3p-0-|
--2b------7b----2pbr------|-----5-----------------------------|
--------------------------|--7--------------------------------|
--------------------------|-----------------------------------|
--------------------------|-----------------------------------|


                                    PM PM PM PM PM PM                     
  S  S  S  S  S E  E  E  E  E.      S  S  S  S  S  S  Q     S   S  Q      
--------------------------------|----------------------------------------|
--------------------------------|----------------------------------------|
--5p-4p-2p-0h-2-4--0--2--0------|--------------------12-----------14b----|
----------------------------2---|-----------12-13-14-------14p-12--------|
--------------------------------|--12-13-14------------------------------|
--------------------------------|----------------------------------------|


                                                               T           
   Q       E     E     E      E.     E.      Q.       Q.       E     E     
-----------------------------------------|--------------------------------|
-----------------------------------------|--15b------15b------18pb--15pb--|
--14pb----14pb--14pb--14pb~---Lpbr---0---|--------------------------------|
-----------------------------------------|--------------------------------|
-----------------------------------------|--------------------------------|
-----------------------------------------|--------------------------------|


   T           T           T                  
   S    E.     S    E.     S    E.     Q      
---------------------------------------------|
--18pb-15pb---18pb-15pb---18pb-15pb----L\----|
---------------------------------------------|
---------------------------------------------|
---------------------------------------------|
---------------------------------------------|


  H         S   S   Q      S   S      E.    Q      S   S   E    S   S   E.      
-----------------------------------|-------------------------------------------|
-----------------------------------|-------------------------------------------|
--2b--------2pb-2pb-2pb----2pb-2pb-|--2pb---2pb----2pb-2pb-2pb--2pb-2pb-2pbr---|
-----------------------------------|-------------------------------------------|
-----------------------------------|-------------------------------------------|
-----------------------------------|-------------------------------------------|


  PM PM PM                                                 
  |--3--|                                                  
  S  S  S  H         E  E  E     E.  E  E.  S S. S. Q      
------------------------------|---------------------------|
--------5--8~--------L--5--8--|--5---8--5---8-5--8--5~----|
-----5------------------------|---------------------------|
--7---------------------------|---------------------------|
------------------------------|---------------------------|
------------------------------|---------------------------|


   PM PM PM PM PM PM                                                           
   S  S  S  S  S  S  Q     S   S  Q         E.     E      S  S   S  H          
----------------------------------------|-------------------------------------|
----------------------------------------|--------------------------15b--------|
--------------------12-----------14b----|--14pb----Lpbr--12-14p-12------------|
-----------12-13-14-------14p-12--------|-------------------------------------|
--12-13-14------------------------------|-------------------------------------|
----------------------------------------|-------------------------------------|


   Q.       Q      E      E   E      H         E   Q.       
-----------------------------15--|---L---------L---L\------|
--15b-------Lb-----Lpbr--12------|-------------------------|
---------------------------------|-------------------------|
---------------------------------|-------------------------|
---------------------------------|-------------------------|
---------------------------------|-------------------------|


  E  E  E  E  E  Q.        Q    E  E  E  Q.        Q    E  E  E  Q.      
------------------------|-----------------------|-----------------------|
------------------------|-----------------------|-----------------------|
--------0-----0---------|-------0---------------|-------0-----0---------|
-----------------2------|--L----------0--2------|--L-------------2------|
------------------------|-----------------------|-----------------------|
--0--0------------------|-----------------------|-----------------------|


  E  T  T  T T T  T  T T T  T  T T T  T  T T T  T  T T T  T  S E    
-------------------------------------------------------------------|
-----5p-3p-0-------------------------------------------------------|
---------------4p-2p-0---4p-2p-0-----------------------------------|
-----------------------------------5p-2p-0---5p-2p-0---------------|
-------------------------------------------------------5p-2p-0-----|
---------------------------------------------------------------3b--|


  Q    E  E  E  Q.        Q    E  E  E  Q.        Q    E  E  E  Q    E   
-----------------------|-----------------------|------------------------|
-----------------------|-----------------------|------------------------|
-------0-----0---------|-------0---------------|-------0-----0----------|
----------------2------|--L----------0--2------|--L-------------2----7--|
-----------------------|-----------------------|---------------------5--|
--0--------------------|-----------------------|------------------------|


  Q.     H        E                                                         
---------------------|-----|-----|-----|-----|-----|-----|-----|-----|-----|
---------------------|-----|-----|-----|-----|-----|-----|-----|-----|-----|
---------------------|-----|-----|-----|-----|-----|-----|-----|-----|-----|
--L------7-----------|-----|-----|-----|-----|-----|-----|-----|-----|-----|
--L------6-----------|-----|-----|-----|-----|-----|-----|-----|-----|-----|
---------------------|-----|-----|-----|-----|-----|-----|-----|-----|-----|


                                            W                 
-----|-----|-----|-----|-----|-----|-----|-------------------|
-----|-----|-----|-----|-----|-----|-----|-------------------|
-----|-----|-----|-----|-----|-----|-----|-------------------|
-----|-----|-----|-----|-----|-----|-----|-------------------|
-----|-----|-----|-----|-----|-----|-----|-------------------|
-----|-----|-----|-----|-----|-----|-----|-------------------|



Outro solo:

  W                   W                   H.           E   E    
-------------------|-------------------|-----------------------|
-------------------|-------------------|------------------15b--|
-------------------|-------------------|-----------------------|
-------------------|-------------------|-----------------------|
-------------------|-------------------|-----------------------|
-------------------|-------------------|-----------------------|


   Q.      H          E      Q      E   Q       E      S  S  E    
-------------------------|---------15----------------------------|
---L------15b---------L--|--15b--------15pb-----Lpbr--15-12-15b--|
-------------------------|---------------------------------------|
-------------------------|---------------------------------------|
-------------------------|---------------------------------------|
-------------------------|---------------------------------------|


   Q.      H          E      Q      E   Q       E      S  S  E    
-------------------------|---------15--------------------15-17b--|
---L------15b---------L--|--15b--------15pb-----Lpbr--15---------|
-------------------------|---------------------------------------|
-------------------------|---------------------------------------|
-------------------------|---------------------------------------|
-------------------------|---------------------------------------|


   Q.        H          E      H          Q        E   E   
--17pb------17b---------L--|--17b--------17pbr----15------|
---------------------------|--------------------------17--|
---------------------------|------------------------------|
---------------------------|------------------------------|
---------------------------|------------------------------|
---------------------------|------------------------------|


   W                     Q.       E   H          
--17b----------------|--17b-------L\-----------||
---------------------|-------------------------||
---------------------|-------------------------||
---------------------|-------------------------||
---------------------|-------------------------||
---------------------|-------------------------||




Duration Legend
---------------
W - whole
H - half
Q - quarter
E - 8th
S - 16th
T - 32nd
X - 64th
. - note dotted
|-n-|  - n-tuplets


Tablature Legend
----------------
L - tied note
x - dead note
g - grace note
(n) - ghost note
> - accentuded note
NH - natural harmonic
AH - artificial harmonic
TH - tapped harmonic
SH - semi harmonic
PH - pitch harmonic
h - hammer on
p - pull off
b - bend
br - bendRelease
pb - preBend
pbr - preBendRelease
brb - bendReleaseBend
\n/ - tremolo bar dip
\n - tremolo bar dive
-/n - tremolo bar Release up
/n\ - tremolo bar inverted dip
/n - tremolo bar return
-\n - tremolo bar Release down
S - shift slide
s - legato slide
/ -  slide into from below or out of upwards
\ -  slide into from above or out of downwards
~ - vibrato
W - wide vibrato
tr - trill
TP - tremolo picking
T - tapping
S - slap
P - pop
< - fade in
^ - brush up
v - brush down

 
comments
We did not receive enough feedback on this tab! Please rate:
print report bad tab
1 2 3 4 5
I want to post or [tab]
guest
You may want to rate the tab now too:
select rating
Please do not post tabs as comments. Select "correction" instead!