Oops, an error
Loading. Please wait.

On The Edge Bass Tab

ver1
ver1

Whole song

Interactive

More versions @911Tabs.com
74 views 1 this week
no commentswrite comment
1 2 3 4 5
please rate
Autoscroll
+/-
esc
set tempo
stop
Contributor
Difficulty
intermediate
Hey! There's an official Ultimate Guitar app which is ideal
for learning songs when you're away from computer. Get the app
WARNING: You are trying to view
                                    content from Ultimate-Guitar.com
                                    in an unauthorized application,
                                    which is prohibited.

                                    Please use an official Ultimate
                                    Guitar Tabs application for iPhone,
                                    iPad or Android to access legitimate
                                    chords, guitar, bass, and drum tabs
                                    from Ultimate-Guitar.com database.

                                    Type "ultimate guitar tabs" in Apple
                                    App Store's or Android Market's
                                    search to find the application.
-----------------------------------------------------------------------------
		      On the Edge - Great White (BASS)
                       
-----------------------------------------------------------------------------
Tabbed by: Scotto10

Tuning: Standard

=============================================================================

Bass



     W                   H        H           W                 
G||-------------------|--------------------|-------------------|
D||-------------------|--------------------|-------------------|
A||-------------------|--------------------|-------------------|
E||--0----------------|--L-----------------|-------------------|


  H          E  E  E  E     H.           E  E     H        E  E  E  E   
-------------------------|---------------------|-----------------------|
-------------------------|---------------------|-----------------------|
-----------2g3-----------|---------------------|-----------------------|
----------------0--3--2--|--0------------L--0--|--------------0-----0--|


  H        E  E  E  E     H          E  E  E  E     E  E  E  E  E  E  E  E   
-----------------------|-------------------------|--------------------------|
-----------------------|-------------------------|--------------------------|
-----------------------|-----------2g3-----------|--------------------------|
--------------------0--|--L-------------0--3--2--|--0--0--0--0--0--0--0--0--|


  E  E  E  E  E  E  E  E     E  E  E  E  E  E  E  E   
--------------------------|--------------------------|
--------------------------|--------------------------|
--3-----------------------|--4-----------------------|
-----0--0--0--0--0--0--0--|-----0--0--0--0--0--0--0--|


  E  E  E  E  E  E  E  E     E  E  E  E  E  E  E  E   
--------------------------|--------------------------|
--------------------------|--------------------------|
--5-----------3-----------|--------------------------|
-----0--0--0-----0--3--2--|--0--0--0--0--0--0--0--0--|


  E  E  E  E  E  E  E  E     E  E  E  E  E  E  E  E     E  E  E  E  Q    Q     
--------------------------|--------------------------|------------------------|
--------------------------|--------------------------|------------------------|
--3-----------------------|--4-----------------------|--5-----------3----5----|
-----0--0--0--0--0--0--0--|-----0--0--0--0--0--0--0--|-----0--0--0------------|


  E  E  E  E  E  E  E  E     E  E  E  E  E  E  E  E   
--------------------------|--------------------------|
--------------------------|--------------------------|
--------------------------|--------------------------|
--0-----0--0--0-----0--0--|--0-----0--0--0--------0--|


  E  E  E  E  E  E  E  E     E  E  E  E  E  E  E  E   
--------------------------|--------------------------|
--------------------------|--------------------------|
--------------------------|--------------------------|
--0-----0--0--0-----0--0--|--0-----0--0--0-----0--0--|


  E  E  E  E  E  E  E  E     E  E  E  E  E  E  E  E   
--------------------------|--------------------------|
--------------------------|--------------------------|
--------------------------|--------------------------|
--0-----0--0--0-----0--0--|--0-----0--0--0--------0--|


  E  E  E  E  E  E  E  E     E  E  E  E  E  E  E  E   
--------------------------|--------------------------|
--------------------------|--------------------------|
--------------------------|--------------------------|
--0-----0--0--0-----0--0--|--0-----0--0--0-----0--0--|


  E  E  E  E  E  E  E  E     E  E  E  E  E  E  E  E   
--------------------------|--------------------------|
--------------------------|--------------------------|
--------------------------|--------------------------|
--0-----0--0--0-----0--0--|--0-----0--0--0-----0--0--|


  E  E  E  E  E  E  E  E     E  E  E  E  E  E  E  E   
--------------------------|--------------------------|
--------------------------|--------------------------|
--------------------------|--------------------------|
--0-----0--0--0-----0--0--|--0-----0--0--0-----0--0--|


  E  E  E  E  E  E  E  E     E  E  E  E  E  E  E  E   
--------------------------|--------------------------|
--------------------------|--------------------------|
--------------------------|--------------------------|
--0-----0--0--0-----0--0--|--0-----0--0--0-----0--0--|


  E  E  E  E  E  E  E  E     E  E  E  E  E  E  E  E   
--------------------------|--------------------------|
--------------------------|--------------------------|
--------------------------|--------------------------|
--0-----0--0--0-----0--0--|--0-----0--0--0-----0--0--|


  E  E  E  E  E  E  E  E     E  E  E  E  E  E   Q      
--------------------------|---------------------------|
--------------------------|---------------------------|
--------------------------|---------------------------|
--0-----0--0--0-----0--0--|--0-----0--0--0-----12\----|


  Q    E  E  E  E  E  E     Q    E  E  E  E  E  E     Q    E  E  E  E  E  E   
-------------------------|-------------------------|-------------------------|
-------------------------|-------------------------|-------------------------|
--3-------------5--------|-------7-----5--7--5-----|--3-------------5--------|
-------0--0--0--------0--|--L-------------------0--|-------0--0--0--------0--|


  Q    Q    Q    E  E     Q    E  E  E  E  E  E     E  E  H        Q     
-----------------------|-------------------------|----------------------|
-----------------------|-------------------------|----------------------|
-----------------0--2--|--3-------------5-----2--|--2--2----------------|
--L----2----3----------|-------0--0--0-----0-----|----------------------|


  E  E  E  E  E  E  E  E     E  E  E  E  E  E  E  E   
--------------------------|--------------------------|
--------------------------|--------------------------|
--------------------------|--3-----------------------|
--0--0--0--0--0--0--0--0--|-----0--0--0--0--0--0--0--|


  E  E  E  E  E  E  E  E     E  E  E  E  E  E  E  E   
--------------------------|--------------------------|
--------------------------|--------------------------|
--4-----------------------|--5-----------3-----------|
-----0--0--0--0--0--0--0--|-----0--0--0-----0--3--2--|


  E  E  E  E  E  E  E  E     E  E  E  E  E  E  E  E     Q.     Q.     Q     
--------------------------|--------------------------|---------------------|
--------------------------|--------------------------|---------------------|
--------------------------|--3-----------------------|--3------5------L----|
--0--0--0--0--0--0--0--0--|-----0--0--0--0--0--0--0--|---------------------|


  E  E  E  E  E  Q    E     E  E  E  E  E  E  E  E     E  E  E  E  E  E  E  E   
-------------------------|--------------------------|--------------------------|
-------------------------|--------------------------|--------------------------|
--2--2--2--2--2----------|--------------------------|--------------------------|
-------------------------|--0-----0--0--0-----0--0--|--0-----0--0--0-----0--0--|


  E  E  E  E  E  E  E  E     E  E  E  E  E  E  E  E   
--------------------------|--------------------------|
--------------------------|--------------------------|
--------------------------|--------------------------|
--0-----0--0--0-----0--0--|--0-----0--0--0--------0--|


  E  E  E  E  E  E  E  E     E  E  E  E  E  E  E  E   
--------------------------|--------------------------|
--------------------------|--------------------------|
--------------------------|--------------------------|
--0-----0--0--0-----0--0--|--0-----0--0--0-----2--5--|


  E  E  E  E  E  E  E  E     E  E  E  E  E  E  E  E   
--------------------------|--------------------------|
--------------------------|--------------------------|
--------------------------|--------------------------|
--0-----0--0--0-----2--5--|--0-----0--0--0-----0--0--|


  E  E  E  E  E  E  E  E     E  E  E  E  E  E  E  E   
--------------------------|--------------------------|
--------------------------|--------------------------|
--------------------------|--------------------------|
--0-----2--5--0-----2--2--|--0-----0--0--0-----2--5--|


  E  E  E  E  E  E  E  E     E  E  E  E  E  E  E  E   
--------------------------|--------------------------|
--------------------------|--------------------------|
--------------------------|--------------------------|
--0-----0--0--0-----0--0--|--0-----0--0--0-----0--0--|


  E  E  E  E  E  E  E  E     E  E  E  E  E  E  E  E   
--------------------------|--------------------------|
--------------------------|--------------------------|
--------------------------|--------------------------|
--0-----0--0--0-----0--0--|--0-----0--0--0-----2--2--|


  E  E  E  E  E  E  E  E     E  E  E  E  E  E   Q      
--------------------------|---------------------------|
--------------------------|---------------------------|
--------------------------|---------------------------|
--0-----0--0--0-----0--0--|--0-----0--0--0-----12\----|


  Q    E  E  E  E  E  E     Q    E  E  E  E  E  E     Q    E  E  E  E  E  E   
-------------------------|-------------------------|-------------------------|
-------------------------|-------------------------|-------------------------|
--3-------------5--------|-------7-----5--7--5-----|--3-------------5--------|
-------0--0--0--------0--|--L-------------------0--|-------0--0--0--------0--|


  Q    Q    Q    E  E     Q    E  E  E  E  E  E     E  E  H        Q     
-----------------------|-------------------------|----------------------|
-----------------------|-------------------------|----------------------|
-----------------0--2--|--3-------------5-----2--|--2--2----------------|
--L----2----3----------|-------0--0--0-----0-----|----------------------|


  E  E  E  E  E  E  E  E     E  E  E  E  E  E  E  E   
--------------------------|--------------------------|
--------------------------|--------------------------|
--------------------------|--3-----------------------|
--0--0--0--0--0--0--0--0--|-----0--0--0--0--0--0--0--|


  E  E  E  E  E  E  E  E     E  E  E  E  E  E  E  E   
--------------------------|--------------------------|
--------------------------|--------------------------|
--4-----------------------|--5-----------3-----------|
-----0--0--0--0--0--0--0--|-----0--0--0-----5--3--2--|


  E  E  E  E  E  E  E  E     E  E  E  E  E  E  E  E     Q.     Q.     E  E   
--------------------------|--------------------------|----------------------|
--------------------------|--------------------------|----------------------|
--------------------------|--3-----------------------|--3------5------------|
--0--0--0--0--0--0--0--0--|-----0--0--0--0--0--0--0--|----------------3--2--|


  E  E  E  E  E  E  E  E     E  E  E  E  E  E  E  E   
--------------------------|--------------------------|
--------------------------|--------------------------|
--------------------------|--3-----------------------|
--0--0--0--0--0--0--0--0--|-----0--0--0--0--0--0--0--|


  E  E  E  E  E  E  E  E     E  E  E  E  E  E  E  E   
--------------------------|--------------------------|
--------------------------|--------------------------|
--4-----------------------|--5-----------3-----------|
-----0--0--0--0--0--0--0--|-----0--0--0-----5--3--2--|


  E  E  E  E  E  E  E  E     E  E  E  E  E  E  E  E     Q.     Q    E  E  E   
--------------------------|--------------------------|-----------------------|
--------------------------|--------------------------|-----------------------|
--------------------------|--3-----------------------|--3------5----5--5--5--|
--0--0--0--0--0--0--0--0--|-----0--0--0--0--0--0--0--|-----------------------|


  E  E  E  E  E  Q    E     E  E    E  E  E  E    E  E   
-------------------------|------------------------------|
-------------------------|------------------------------|
--2--2--2--2--2----------|------------------------------|
-------------------------|--0-----0g0--0--0-----0g0--0--|


  E  E    E  E  E  E    E  E     E  E    E  E  E  E    E  E   
------------------------------|------------------------------|
------------------------------|------------------------------|
------------------------------|------------------------------|
--0-----0g0--0--0-----0g0--0--|--0-----0g0--0--0-----0g0--0--|


  E  E    E  E  E  E    E  E     E  E    E  E  E  E    E  E   
------------------------------|------------------------------|
------------------------------|------------------------------|
------------------------------|------------------------------|
--0-----0g0--0--0-----0g0--0--|--0-----0g0--0--0-----0g0--0--|


  E  E    E  E  E  E    E  E     E  E    E  E  E  E    E  E   
------------------------------|------------------------------|
------------------------------|------------------------------|
------------------------------|------------------------------|
--0-----0g0--0--0-----0g0--0--|--0-----0g0--0--0-----0g0--0--|


  E  E    E  E  E  E    E  E     E  E    E  E  E  E    E  E   
------------------------------|------------------------------|
------------------------------|------------------------------|
------------------------------|------------------------------|
--0-----0g0--0--0-----0g0--0--|--0-----0g0--0--0-----0g0--0--|


  E  E    E  E  E  E    E  E     E  E    E  E  E  E    E  E   
------------------------------|------------------------------|
------------------------------|------------------------------|
------------------------------|------------------------------|
--0-----0g0--0--0-----0g0--0--|--0-----0g0--0--0-----0g0--0--|


  E  E    E  E  E  E    E  E     E  E    E  E  E  E    E  E   
------------------------------|------------------------------|
------------------------------|------------------------------|
------------------------------|------------------------------|
--0-----0g0--0--0-----0g0--0--|--0-----0g0--0--0-----0g0--0--|


  E  E    E  E  E  E    E  E     E  E    E  E  E  E    E  E   
------------------------------|------------------------------|
------------------------------|------------------------------|
------------------------------|------------------------------|
--0-----0g0--0--0-----0g0--0--|--0-----0g0--0--0-----0g0--0--|


  E  E    E  E  E  E    E  E     E  E    E  E  E  E    E  E   
------------------------------|------------------------------|
------------------------------|------------------------------|
------------------------------|------------------------------|
--0-----0g0--0--0-----0g0--0--|--0-----0g0--0--0-----0g0--0--|


  E  E    E  E  E  E    E  E     E  E    E  E  E  E    E  E   
------------------------------|------------------------------|
------------------------------|------------------------------|
------------------------------|------------------------------|
--0-----0g0--0--0-----0g0--0--|--0-----0g0--0--0-----0g0--0--|


  E  E    E  E  E  E    E  E     E  E    E  E  E  E    E  E   
------------------------------|------------------------------|
------------------------------|------------------------------|
------------------------------|------------------------------|
--0-----0g0--0--0-----0g0--0--|--0-----0g0--0--0-----0g0--0--|


  E  E    E  E  E  E    E  E     E  E    E  E  E  E    E  E   
------------------------------|------------------------------|
------------------------------|------------------------------|
------------------------------|------------------------------|
--0-----0g0--0--0-----0g0--0--|--0-----0g0--0--0-----0g0--0--|


  E  E    E  E  E  E    E  E     E  E    E  E  E  E    E  E   
------------------------------|------------------------------|
------------------------------|------------------------------|
------------------------------|------------------------------|
--0-----0g0--0--0-----0g0--0--|--0-----0g0--0--0-----0g0--0--|


  E  E    E  E  E  E    E  E     E  E    E  E  E  E    E  E   
------------------------------|------------------------------|
------------------------------|------------------------------|
------------------------------|------------------------------|
--0-----0g0--0--0-----0g0--0--|--0-----0g0--0--0-----0g0--0--|


  E  E    E  E  E  E    E  E     E  E    E  E  E  E    E  E   
------------------------------|------------------------------|
------------------------------|------------------------------|
------------------------------|------------------------------|
--0-----0g0--0--0-----0g0--0--|--0-----0g0--0--0-----0g0--0--|


  E  E    E  E  E  E    E  E     E  E    E  E  E  E    E  E   
------------------------------|------------------------------|
------------------------------|------------------------------|
------------------------------|------------------------------|
--0-----0g0--0--0-----0g0--0--|--0-----0g0--0--0-----0g0--0--|


  E  E    E  E  E  E    E  E     E  E    E  E  E  E    E  E   
------------------------------|------------------------------|
------------------------------|------------------------------|
------------------------------|------------------------------|
--0-----0g0--0--0-----0g0--0--|--0-----0g0--0--0-----0g0--0--|


  E  E    E  E  E  E    E  E     E  E    E  E  E  E    E  E   
------------------------------|------------------------------|
------------------------------|------------------------------|
------------------------------|------------------------------|
--0-----0g0--0--0-----0g0--0--|--0-----0g0--0--0-----0g0--0--|


  E  E    E  E  E  E    E  E     E  E    E  E  E  E    E  E   
------------------------------|------------------------------|
------------------------------|------------------------------|
------------------------------|------------------------------|
--0-----0g0--0--0-----0g0--0--|--0-----0g0--0--0-----0g0--0--|


  E  E    E  E  E  E    E  E     E  E    E  E  E  E    E  E   
------------------------------|------------------------------|
------------------------------|------------------------------|
------------------------------|------------------------------|
--0-----0g0--0--0-----0g0--0--|--0-----0g0--0--0-----0g0--0--|


  E  E    E  E  E  E    E  E     E  E    E  E  E  E    E  E   
------------------------------|------------------------------|
------------------------------|------------------------------|
------------------------------|------------------------------|
--0-----0g0--0--0-----0g0--0--|--0-----0g0--0--0-----0g0--0--|


  E  E    E  E  E  E    E  E     E  E    E  E  E  E    E  E   
------------------------------|------------------------------|
------------------------------|------------------------------|
------------------------------|------------------------------|
--0-----0g0--0--0-----0g0--0--|--0-----0g0--0--0-----0g0--0--|


  E  E    E  E  E  E    E  E     E  E    E  E  E  E    E  E   
------------------------------|------------------------------|
------------------------------|------------------------------|
------------------------------|------------------------------|
--0-----0g0--0--0-----0g0--0--|--0-----0g0--0--0-----0g0--0--|


  E  E    E  E  E  E    E  E     Q    E  E  E  E  E  E   
------------------------------|-------------------------|
------------------------------|-------------------------|
------------------------------|--3-------------5--------|
--0-----0g0--0--0-----0g0--0--|-------0--0--0--------0--|


  Q    E  E  E  E  E  E     Q    E  E  E  E  E  E     Q    Q    Q    E  E   
-------------------------|-------------------------|-----------------------|
-------------------------|-------------------------|-----------------------|
-------7-----5--7--5-----|--3-------------5--------|-----------------0--2--|
--L-------------------0--|-------0--0--0--------0--|--L----2----3----------|


  Q    E  E  E  E  E  E     E  E  H        Q       E  E  E  E  E  E  E  E   
-------------------------|----------------------|--------------------------|
-------------------------|----------------------|--------------------------|
--3-------------5-----2--|--2--2----------------|--------------------------|
-------0--0--0-----0-----|----------------------|--0--0--0--0--0--0--0--0--|


  E  E  E  E  E  E  E  E     E  E  E  E  E  E  E  E   
--------------------------|--------------------------|
--------------------------|--------------------------|
--3-----------------------|--4-----------------------|
-----0--0--0--0--0--0--0--|-----0--0--0--0--0--0--0--|


  E  E  E  E  E  E  E  E     E  E  E  E  E  E  E  E   
--------------------------|--------------------------|
--------------------------|--------------------------|
--5-----------3-----------|--------------------------|
-----0--0--0-----5--3--2--|--0--0--0--0--0--0--0--0--|


  E  E  E  E  E  E  E  E     Q.     Q.     E  E     E  E  E  E  E  E  E  E   
--------------------------|----------------------|--------------------------|
--------------------------|----------------------|--------------------------|
--3-----------------------|--3------5------------|--------------------------|
-----0--0--0--0--0--0--0--|----------------3--2--|--0--0--0--0--0--0--0--0--|


  E  E  E  E  E  E  E  E     E  E  E  E  E  E  E  E   
--------------------------|--------------------------|
--------------------------|--------------------------|
--3-----------------------|--4--5--------------------|
-----0--0--0--0--0--0--0--|--------0--0--0--0--0--0--|


  E  E  E  E  E  E  E  E     E  E  E  E  E  E  E  E   
--------------------------|--------------------------|
--------------------------|--------------------------|
--5-----------3-----------|--------------------------|
-----0--0--0-----5--3--2--|--0--0--0--0--0--0--0--0--|


  E  E  E  E  E  E  E  E     Q.     Q.     E  E     E  E  E  E  E  E  E  E   
--------------------------|----------------------|--------------------------|
--------------------------|----------------------|--------------------------|
--3-----------------------|--3------5------------|--------------------------|
-----0--0--0--0--0--0--0--|----------------3--2--|--0--0--0--0--0--0--0--0--|


  E  E  E  E  E  E  E  E     E  E  E  E  E  E  E  E   
--------------------------|--------------------------|
--------------------------|--------------------------|
--3-----------------------|--4--5--------------------|
-----0--0--0--0--0--0--0--|--------0--0--0--0--0--0--|


  E  E  E  E  E  E  E  E     E  E  E  E  E  E  E  E   
--------------------------|--------------------------|
--------------------------|--------------------------|
--5-----------3-----------|--------------------------|
-----0--0--0-----5--3--2--|--0--0--0--0--0--0--0--0--|


  E  E  E  E  E  E  E  E     Q.     Q    E  E  E     E  E  E  E  E  Q    E   
--------------------------|-----------------------|-------------------------|
--------------------------|-----------------------|-------------------------|
--3-----------------------|--3------5----5--5--5--|--2--2--2--2--2----------|
-----0--0--0--0--0--0--0--|-----------------------|-------------------------|


  E  E    E  E  E  E    E  E     E  E    E  E  E  E    E  E   
------------------------------|------------------------------|
------------------------------|------------------------------|
------------------------------|------------------------------|
--0-----0g0--0--0-----0g0--0--|--0-----0g0--0--0-----0g0--0--|


  E  E    E  E  E  E    E  E     E  E    E  E  E  E    E  E   
------------------------------|------------------------------|
------------------------------|------------------------------|
------------------------------|------------------------------|
--0-----0g0--0--0-----0g0--0--|--0-----0g0--0--0-----0g0--0--|


  E  E    E  E  E  E    E  E     E  E    E  E  E  E    E  E   
------------------------------|------------------------------|
------------------------------|------------------------------|
------------------------------|------------------------------|
--0-----0g0--0--0-----0g0--0--|--0-----0g0--0--0-----0g0--0--|


  E  E    E  E  E  E    E  E     E  E    E  E  E  E    E  E    
------------------------------|------------------------------||
------------------------------|------------------------------||
------------------------------|------------------------------||
--0-----0g0--0--0-----0g0--0--|--0-----0g0--0--0-----0g0--0--||




Duration Legend
---------------
W - whole
H - half
Q - quarter
E - 8th
S - 16th
T - 32nd
X - 64th
. - note dotted
|-n-|  - n-tuplets


Tablature Legend
----------------
L - tied note
x - dead note
g - grace note
(n) - ghost note
> - accentuded note
NH - natural harmonic
AH - artificial harmonic
TH - tapped harmonic
SH - semi harmonic
PH - pitch harmonic
h - hammer on
p - pull off
b - bend
br - bendRelease
pb - preBend
pbr - preBendRelease
brb - bendReleaseBend
\n/ - tremolo bar dip
\n - tremolo bar dive
-/n - tremolo bar Release up
/n\ - tremolo bar inverted dip
/n - tremolo bar return
-\n - tremolo bar Release down
S - shift slide
s - legato slide
/ -  slide into from below or out of upwards
\ -  slide into from above or out of downwards
~ - vibrato
W - wide vibrato
tr - trill
TP - tremolo picking
T - tapping
S - slap
P - pop
< - fade in
^ - brush up
v - brush down
comments
We did not receive enough feedback on this tab! Please rate:
print report bad tab
1 2 3 4 5
I want to post or [tab]
guest
You may want to rate the tab now too:
select rating
Please do not post tabs as comments. Select "correction" instead!