Oops, an error
Loading. Please wait.

On The Edge Tab

ver1
ver1

Whole song

Interactive

More versions @911Tabs.com
248 views 1 this week
no commentswrite comment
1 2 3 4 5
please rate
Autoscroll
+/-
esc
set tempo
stop
Contributor
Difficulty
intermediate
Hey! There's an official Ultimate Guitar app which is ideal
for learning songs when you're away from computer. Get the app
WARNING: You are trying to view
                                    content from Ultimate-Guitar.com
                                    in an unauthorized application,
                                    which is prohibited.

                                    Please use an official Ultimate
                                    Guitar Tabs application for iPhone,
                                    iPad or Android to access legitimate
                                    chords, guitar, bass, and drum tabs
                                    from Ultimate-Guitar.com database.

                                    Type "ultimate guitar tabs" in Apple
                                    App Store's or Android Market's
                                    search to find the application.
-----------------------------------------------------------------------------
                      On the Edge - Great White (GUITAR)
                       
-----------------------------------------------------------------------------
Tabbed by: Scotto10

Tuning: Standard

=============================================================================

Guitar - rhythm



        PM PM PM PM    PM       PM PM PM PM PM    PM     
     E  E  E  E  E  E  E  E     E  E  E  E  E  E  E  E   
E||--------------------------|--------------------------|
B||--------------------------|--------------------------|
G||--9--------------7-----5--|-----------------5-----6--|
D||--9--------------7-----5--|-----------------5-----5--|
A||--------------------------|--------------------------|
E||-----0--0--0--0-----0-----|--0--0--0--0--0-----0-----|


  PM PM PM PM PM    PM       PM PM PM PM    PM        
  E  E  E  E  E  E  E  E     E  E  E  E  E  E  E  E   
--------------------------|--------------------------|
--------------------------|--------------------------|
-----------------6-----7--|--------------5-----------|
-----------------5-----7--|--------------5-----------|
--------------------------|--------------------------|
--0--0--0--0--0-----0-----|--0--0--0--0-----0--3--2--|


     PM PM PM PM    PM       PM PM PM PM PM    PM     
  E  E  E  E  E  E  E  E     E  E  E  E  E  E  E  E   
--------------------------|--------------------------|
--------------------------|--------------------------|
--9--------------7-----5--|-----------------5-----6--|
--9--------------7-----5--|-----------------5-----5--|
--------------------------|--------------------------|
-----0--0--0--0-----0-----|--0--0--0--0--0-----0-----|


  PM PM PM PM PM    PM       PM PM PM PM    PM        
  E  E  E  E  E  E  E  E     E  E  E  E  E  E  E  E   
--------------------------|--------------------------|
--------------------------|--------------------------|
-----------------6-----7--|--------------5-----------|
-----------------5-----7--|--------------5-----------|
--------------------------|--------------------------|
--0--0--0--0--0-----0-----|--0--0--0--0-----0--3--2--|


     PM PM PM PM    PM       PM PM PM PM PM    PM     
  E  E  E  E  E  E  E  E     E  E  E  E  E  E  E  E   
--------------------------|--------------------------|
--------------------------|--------------------------|
--9--------------7-----5--|-----------------5-----6--|
--9--------------7-----5--|-----------------5-----5--|
--------------------------|--------------------------|
-----0--0--0--0-----0-----|--0--0--0--0--0-----0-----|


  PM PM PM PM PM    PM       PM PM PM PM    PM        
  E  E  E  E  E  E  E  E     E  E  E  E  E  E  E  E   
--------------------------|--------------------------|
--------------------------|--------------------------|
-----------------6-----7--|--------------5-----------|
-----------------5-----7--|--------------5-----------|
--------------------------|--------------------------|
--0--0--0--0--0-----0-----|--0--0--0--0-----0--3--2--|


     PM PM PM PM    PM       PM PM PM PM PM    PM     
  E  E  E  E  E  E  E  E     E  E  E  E  E  E  E  E   
--------------------------|--------------------------|
--------------------------|--------------------------|
--9--------------7-----5--|-----------------5-----6--|
--9--------------7-----5--|-----------------5-----5--|
--------------------------|--------------------------|
-----0--0--0--0-----0-----|--0--0--0--0--0-----0-----|


  PM PM PM PM PM    PM       PM PM PM PM                                
  E  E  E  E  E  E  E  E     E  E  E  E  Q    Q       W                 
--------------------------|------------------------|-------------------|
--------------------------|------------------------|-------------------|
-----------------6-----7--|--------------5----7----|--9----------------|
-----------------5-----7--|--------------5----7----|--9----------------|
--------------------------|------------------------|--7----------------|
--0--0--0--0--0-----0-----|--0--0--0--0------------|--0----------------|


  W                   W                   H.           E  S S  
-------------------|-------------------|----------------------|
-------------------|-------------------|------------------x-x-|
-------------------|--9----------------|--L------------L--x-x-|
-------------------|--9----------------|--L------------L--x-x-|
-------------------|--7----------------|--L------------L------|
--0----------------|--0----------------|--L------------L------|


  H.           E  S S    W                   W                 
----------------------|-------------------|-------------------|
----------------------|--3----------------|-------------------|
--0------------L------|--2----------------|--9----------------|
--0------------L--x-x-|--0----------------|--9----------------|
------------------x-x-|-------------------|--7----------------|
--3------------L------|-------------------|--0----------------|


  H.           E  E     H.           E  E     W                 
---------------------|---------------------|-------------------|
------------------x--|---------------------|--3----------------|
--L---------------x--|--0------------L--x--|--2----------------|
--L---------------x--|--0------------L--x--|--0----------------|
--L------------------|------------------x--|-------------------|
--L------------------|--3------------L-----|-------------------|


  W                   H.           E  E     W                 
-------------------|---------------------|-------------------|
-------------------|------------------x--|-------------------|
--9----------------|--L---------------x--|--0----------------|
--9----------------|--L---------------x--|--0----------------|
--7----------------|--L------------------|-------------------|
--0----------------|--L------------------|--3----------------|


  W                   W                   H.           E  E   
-------------------|-------------------|---------------------|
--3----------------|-------------------|------------------x--|
--2----------------|--9----------------|--L---------------x--|
--0----------------|--9----------------|--L---------------x--|
-------------------|--7----------------|--L------------------|
-------------------|--0----------------|--L------------------|


                                                    PM PM PM    PM     
  H.           E  E     H.            Q        Q    E  E  E  E  E  E   
---------------------|----------------------|-------------------------|
---------------------|----------------------|-------------------------|
--7------------L--x--|--7-------------------|-------------------------|
--5------------L--x--|--7-------------------|--5-------------7-----9--|
------------------x--|----------------------|--3-------------5-----7--|
---------------------|---------------17\----|-------0--0--0-----0-----|


                     PM         PM PM PM    PM                              
  Q    E  E  E  Q    E     Q    E  E  E  E  E  E     Q    E  E  E  Q    E   
------------------------|-------------------------|------------------------|
------------------------|-------------------------|-------8-----8----------|
------------------------|-------------------------|-------7-----7--9-------|
--L----9-----7--9-------|--5-------------7-----9--|--L-------------9-------|
--L----7-----5--7-------|--3-------------5-----7--|--L---------------------|
---------------------0--|-------0--0--0-----0-----|---------------------0--|


  Q    E  E  E  E  E  E     E  E  H        Q       W                 
-------------------------|----------------------|-------------------|
-------------------------|----------------------|-------------------|
-------------------------|----------------------|-------------------|
--5-------------7-----9--|--9--9----------------|--9----------------|
--3-------------5-----9--|--9--9----------------|--7----------------|
-------0--0--0-----0--7--|--7--7----------------|-------------------|


  W                   W                   H.           E  E   
-------------------|-------------------|---------------------|
-------------------|-------------------|---------------------|
-------------------|-------------------|---------------------|
--5----------------|--7----------------|--7------------------|
--3----------------|--4----------------|--5------------------|
-------------------|-------------------|---------------3--2--|


  W                   W                   Q.     Q.     Q     
-------------------|-------------------|---------------------|
-------------------|-------------------|---------------------|
-------------------|-------------------|---------------------|
--9----------------|--5----------------|--5------7------L----|
--7----------------|--3----------------|--3------5------L----|
--0----------------|-------------------|---------------------|


  E  E  E  E  E  Q.        W                   H.           E  S S  
------------------------|-------------------|----------------------|
------------------------|-------------------|------------------x-x-|
------------------------|--9----------------|--L------------L--x-x-|
------------------------|--9----------------|--L------------L--x-x-|
--2--2--2--2--2---------|--7----------------|--L------------L------|
------------------------|--0----------------|--L------------L------|


  H.           E  S S    W                   W                 
----------------------|-------------------|-------------------|
----------------------|--3----------------|-------------------|
--0------------L------|--2----------------|--9----------------|
--0------------L--x-x-|--0----------------|--9----------------|
------------------x-x-|-------------------|--7----------------|
--3------------L------|-------------------|--0----------------|


  H.           E  E     H.           E  E     W                 
---------------------|---------------------|-------------------|
------------------x--|---------------------|--3----------------|
--L---------------x--|--0------------L--x--|--2----------------|
--L---------------x--|--0------------L--x--|--0----------------|
--L------------------|------------------x--|-------------------|
--L------------------|--3------------L-----|-------------------|


  W                   H.           E  E     W                 
-------------------|---------------------|-------------------|
-------------------|------------------x--|-------------------|
--9----------------|--L---------------x--|--0----------------|
--9----------------|--L---------------x--|--0----------------|
--7----------------|--L------------------|-------------------|
--0----------------|--L------------------|--3----------------|


  W                   W                   H.           E  E   
-------------------|-------------------|---------------------|
--3----------------|-------------------|------------------x--|
--2----------------|--9----------------|--L---------------x--|
--0----------------|--9----------------|--L---------------x--|
-------------------|--7----------------|--L------------------|
-------------------|--0----------------|--L------------------|


                                                    PM PM PM    PM     
  H.           E  E     H.            Q        Q    E  E  E  E  E  E   
---------------------|----------------------|-------------------------|
---------------------|----------------------|-------------------------|
--7------------L--x--|--7-------------------|-------------------------|
--5------------L--x--|--7-------------------|--5-------------7-----9--|
------------------x--|----------------------|--3-------------5-----7--|
---------------------|---------------17\----|-------0--0--0-----0-----|


                     PM         PM PM PM    PM                              
  Q    E  E  E  Q    E     Q    E  E  E  E  E  E     Q    E  E  E  Q    E   
------------------------|-------------------------|------------------------|
------------------------|-------------------------|-------8-----8----------|
------------------------|-------------------------|-------7-----7--9-------|
--L----9-----7--9-------|--5-------------7-----9--|--L-------------9-------|
--L----7-----5--7-------|--3-------------5-----7--|--L---------------------|
---------------------0--|-------0--0--0-----0-----|---------------------0--|


  Q    E  E  E  E  E  E     E  E  H        Q       W                 
-------------------------|----------------------|-------------------|
-------------------------|----------------------|-------------------|
-------------------------|----------------------|-------------------|
--5-------------7-----9--|--9--9----------------|--9----------------|
--3-------------5-----9--|--9--9----------------|--7----------------|
-------0--0--0-----0--7--|--7--7----------------|-------------------|


  W                   W                   H.           E  E   
-------------------|-------------------|---------------------|
-------------------|-------------------|---------------------|
-------------------|-------------------|---------------------|
--5----------------|--7----------------|--7------------------|
--3----------------|--4----------------|--5------------------|
-------------------|-------------------|---------------3--2--|


  W                   W                   Q.     Q.     Q     
-------------------|-------------------|---------------------|
-------------------|-------------------|---------------------|
-------------------|-------------------|---------------------|
--9----------------|--5----------------|--5------7------L----|
--7----------------|--3----------------|--3------5------L----|
--0----------------|-------------------|---------------------|


  W                   W                   W                 
-------------------|-------------------|-------------------|
-------------------|-------------------|-------------------|
-------------------|-------------------|-------------------|
--9----------------|--5----------------|--7----------------|
--7----------------|--3----------------|--4----------------|
-------------------|-------------------|-------------------|


  H.           E  E     W                   W                 
---------------------|-------------------|-------------------|
---------------------|-------------------|-------------------|
---------------------|-------------------|-------------------|
--7------------------|--9----------------|--5----------------|
--5------------------|--7----------------|--3----------------|
---------------3--2--|--0----------------|-------------------|


  Q.     Q.     Q       E  E  E  E  E  Q.        W                 
---------------------|------------------------|-------------------|
---------------------|------------------------|-------------------|
---------------------|------------------------|-------------------|
--5------7------L----|--4--4--4--4--4---------|-------------------|
--3------5------L----|--2--2--2--2--2---------|-------------------|
---------------------|------------------------|-------------------|


  W                   W                   W                   W                 
-------------------|-------------------|-------------------|-------------------|
-------------------|-------------------|-------------------|-------------------|
-------------------|-------------------|-------------------|-------------------|
-------------------|-------------------|-------------------|-------------------|
-------------------|-------------------|-------------------|-------------------|
-------------------|-------------------|-------------------|-------------------|


  W                   W                   W                   W                 
-------------------|-------------------|-------------------|-------------------|
-------------------|-------------------|-------------------|-------------------|
-------------------|-------------------|-------------------|-------------------|
-------------------|-------------------|-------------------|-------------------|
-------------------|-------------------|-------------------|-------------------|
-------------------|-------------------|-------------------|-------------------|


  W                   W                   W                   W                 
-------------------|-------------------|-------------------|-------------------|
-------------------|-------------------|-------------------|-------------------|
-------------------|-------------------|-------------------|-------------------|
-------------------|-------------------|-------------------|-------------------|
-------------------|-------------------|-------------------|-------------------|
-------------------|-------------------|-------------------|-------------------|


  W                   W                   W                   W                 
-------------------|-------------------|-------------------|-------------------|
-------------------|-------------------|-------------------|-------------------|
-------------------|-------------------|-------------------|-------------------|
-------------------|-------------------|-------------------|-------------------|
-------------------|-------------------|-------------------|-------------------|
-------------------|-------------------|-------------------|-------------------|


  W                   W                   W                   W                 
-------------------|-------------------|-------------------|-------------------|
-------------------|-------------------|-------------------|-------------------|
-------------------|-------------------|-------------------|-------------------|
-------------------|-------------------|-------------------|-------------------|
-------------------|-------------------|-------------------|-------------------|
-------------------|-------------------|-------------------|-------------------|


  W                   W                   W                   W                 
-------------------|-------------------|-------------------|-------------------|
-------------------|-------------------|-------------------|-------------------|
-------------------|-------------------|-------------------|-------------------|
-------------------|-------------------|-------------------|-------------------|
-------------------|-------------------|-------------------|-------------------|
-------------------|-------------------|-------------------|-------------------|


  W                   W                   W                   W                 
-------------------|-------------------|-------------------|-------------------|
-------------------|-------------------|-------------------|-------------------|
-------------------|-------------------|-------------------|-------------------|
-------------------|-------------------|-------------------|-------------------|
-------------------|-------------------|-------------------|-------------------|
-------------------|-------------------|-------------------|-------------------|


  W                   W                   W                   W                 
-------------------|-------------------|-------------------|-------------------|
-------------------|-------------------|-------------------|-------------------|
-------------------|-------------------|-------------------|-------------------|
-------------------|-------------------|-------------------|-------------------|
-------------------|-------------------|-------------------|-------------------|
-------------------|-------------------|-------------------|-------------------|


  W                   W                   W                   W                 
-------------------|-------------------|-------------------|-------------------|
-------------------|-------------------|-------------------|-------------------|
-------------------|-------------------|-------------------|-------------------|
-------------------|-------------------|-------------------|-------------------|
-------------------|-------------------|-------------------|-------------------|
-------------------|-------------------|-------------------|-------------------|


  W                   W                   W                   W                 
-------------------|-------------------|-------------------|-------------------|
-------------------|-------------------|-------------------|-------------------|
-------------------|-------------------|-------------------|-------------------|
-------------------|-------------------|-------------------|-------------------|
-------------------|-------------------|-------------------|-------------------|
-------------------|-------------------|-------------------|-------------------|


  W                   W                   W                   W                 
-------------------|-------------------|-------------------|-------------------|
-------------------|-------------------|-------------------|-------------------|
-------------------|-------------------|-------------------|-------------------|
-------------------|-------------------|-------------------|-------------------|
-------------------|-------------------|-------------------|-------------------|
-------------------|-------------------|-------------------|-------------------|


                           PM PM PM    PM                          PM  
  W                   Q    E  E  E  E  E  E     Q    E  E  E  Q    E   
-------------------|-------------------------|------------------------|
-------------------|-------------------------|------------------------|
-------------------|-------------------------|------------------------|
-------------------|--5-------------7-----9--|--L----9-----7--9-------|
-------------------|--3-------------5-----7--|--L----7-----5--7-------|
-------------------|-------0--0--0-----0-----|---------------------0--|


       PM PM PM    PM                                                        
  Q    E  E  E  E  E  E     Q    E  E  E  Q    E     Q    E  E  E  E  E  E   
-------------------------|------------------------|-------------------------|
-------------------------|-------8-----8----------|-------------------------|
-------------------------|-------7-----7--9-------|-------------------------|
--5-------------7-----9--|--L-------------9-------|--5-------------7-----9--|
--3-------------5-----7--|--L---------------------|--3-------------5-----9--|
-------0--0--0-----0-----|---------------------0--|-------0--0--0-----0--7--|


  E  E  H        Q       W                   W                 
----------------------|-------------------|-------------------|
----------------------|-------------------|-------------------|
----------------------|-------------------|-------------------|
--9--9----------------|--9----------------|--5----------------|
--9--9----------------|--7----------------|--3----------------|
--7--7----------------|-------------------|-------------------|


  W                   H.           E  E     W                 
-------------------|---------------------|-------------------|
-------------------|---------------------|-------------------|
-------------------|---------------------|-------------------|
--7----------------|--7------------------|--9----------------|
--4----------------|--5------------------|--7----------------|
-------------------|---------------3--2--|--0----------------|


  W                   Q.     Q.     Q       W                 
-------------------|---------------------|-------------------|
-------------------|---------------------|-------------------|
-------------------|---------------------|-------------------|
--5----------------|--5------7------L----|--9----------------|
--3----------------|--3------5------L----|--7----------------|
-------------------|---------------------|-------------------|


  W                   W                   H.           E  E   
-------------------|-------------------|---------------------|
-------------------|-------------------|---------------------|
-------------------|-------------------|---------------------|
--5----------------|--7----------------|--7------------------|
--3----------------|--4----------------|--5------------------|
-------------------|-------------------|---------------3--2--|


  W                   W                   Q.     Q.     Q     
-------------------|-------------------|---------------------|
-------------------|-------------------|---------------------|
-------------------|-------------------|---------------------|
--9----------------|--5----------------|--5------7------L----|
--7----------------|--3----------------|--3------5------L----|
--0----------------|-------------------|---------------------|


  W                   W                   W                 
-------------------|-------------------|-------------------|
-------------------|-------------------|-------------------|
-------------------|-------------------|-------------------|
--9----------------|--5----------------|--7----------------|
--7----------------|--3----------------|--4----------------|
-------------------|-------------------|-------------------|


  H.           E  E     W                   W                 
---------------------|-------------------|-------------------|
---------------------|-------------------|-------------------|
---------------------|-------------------|-------------------|
--7------------------|--9----------------|--5----------------|
--5------------------|--7----------------|--3----------------|
---------------3--2--|--0----------------|-------------------|


  Q.     Q.     Q       S S S S S S S S E  Q.        W                 
---------------------|----------------------------|-------------------|
---------------------|----------------------------|-------------------|
---------------------|----------------------------|-------------------|
--5------7------L----|--4-4-4-4-4-4-4-4-4---------|-------------------|
--3------5------L----|--2-2-2-2-2-2-2-2-2---------|-------------------|
---------------------|----------------------------|-------------------|


  W                   W                   W                   W                 
-------------------|-------------------|-------------------|-------------------|
-------------------|-------------------|-------------------|-------------------|
-------------------|-------------------|-------------------|-------------------|
-------------------|-------------------|-------------------|-------------------|
-------------------|-------------------|-------------------|-------------------|
-------------------|-------------------|-------------------|-------------------|


  W                   W                   W                  
-------------------|-------------------|-------------------||
-------------------|-------------------|-------------------||
-------------------|-------------------|-------------------||
-------------------|-------------------|-------------------||
-------------------|-------------------|-------------------||
-------------------|-------------------|-------------------||




=====================================================================
=====================================================================



Guitar 2  - fills throughout



     W                   W                   W                 
E||-------------------|-------------------|-------------------|
B||-------------------|-------------------|-------------------|
G||-------------------|-------------------|-------------------|
D||-------------------|-------------------|-------------------|
A||-------------------|-------------------|-------------------|
E||-------------------|-------------------|-------------------|


  W                   W                   W                   W                 
-------------------|-------------------|-------------------|-------------------|
-------------------|-------------------|-------------------|-------------------|
-------------------|-------------------|-------------------|-------------------|
-------------------|-------------------|-------------------|-------------------|
-------------------|-------------------|-------------------|-------------------|
-------------------|-------------------|-------------------|-------------------|


  W                   W                   W                   W                 
-------------------|-------------------|-------------------|-------------------|
-------------------|-------------------|-------------------|-------------------|
-------------------|-------------------|-------------------|-------------------|
-------------------|-------------------|-------------------|-------------------|
-------------------|-------------------|-------------------|-------------------|
-------------------|-------------------|-------------------|-------------------|


  W                   W                   W                   W                 
-------------------|-------------------|-------------------|-------------------|
-------------------|-------------------|-------------------|-------------------|
-------------------|-------------------|-------------------|-------------------|
-------------------|-------------------|-------------------|-------------------|
-------------------|-------------------|-------------------|-------------------|
-------------------|-------------------|-------------------|-------------------|


  W                   W                   W                   W                 
-------------------|-------------------|-------------------|-------------------|
-------------------|-------------------|-------------------|-------------------|
-------------------|-------------------|-------------------|-------------------|
-------------------|-------------------|-------------------|-------------------|
-------------------|-------------------|-------------------|-------------------|
-------------------|-------------------|-------------------|-------------------|


  W                   W                   W                   W                 
-------------------|-------------------|-------------------|-------------------|
-------------------|-------------------|-------------------|-------------------|
-------------------|-------------------|-------------------|-------------------|
-------------------|-------------------|-------------------|-------------------|
-------------------|-------------------|-------------------|-------------------|
-------------------|-------------------|-------------------|-------------------|


                 NH        \1/                   \1                
  H.             Q         W                     W                 
----------------------|---------------------|---------------------|
----------------------|---------------------|---------------------|
---------------<>5----|--<>L----------------|--<>5----------------|
----------------------|---------------------|---------------------|
----------------------|---------------------|---------------------|
----------------------|---------------------|---------------------|


  W                   W                   W                   W                 
-------------------|-------------------|-------------------|-------------------|
-------------------|-------------------|-------------------|-------------------|
-------------------|-------------------|-------------------|-------------------|
-------------------|-------------------|-------------------|-------------------|
-------------------|-------------------|-------------------|-------------------|
-------------------|-------------------|-------------------|-------------------|


                                           \1                
  W                   W                    W                 
-------------------|-------------------|--------------------|
-------------------|-------------------|--17----------------|
-------------------|-------------------|--------------------|
-------------------|-------------------|--------------------|
-------------------|-------------------|--------------------|
-------------------|-------------------|--------------------|


  W                   W                   W                   W                 
-------------------|-------------------|-------------------|-------------------|
-------------------|-------------------|-------------------|-------------------|
-------------------|-------------------|-------------------|-------------------|
-------------------|-------------------|-------------------|-------------------|
-------------------|-------------------|-------------------|-------------------|
-------------------|-------------------|-------------------|-------------------|


  W                   W                   W                 
-------------------|-------------------|-------------------|
-------------------|-------------------|-------------------|
-------------------|-------------------|-------------------|
-------------------|-------------------|-------------------|
-------------------|-------------------|-------------------|
-------------------|-------------------|-------------------|


  E  E  E  E  E  Q    E     E  E  E  E  E  Q    E     E  E  E  E  E  Q    E   
--------------3----------|--------------3----------|--------------3----------|
--------5--------5-------|--------5--------5-------|--------5--------5-------|
-----4-----4-------------|-----4-----4-------------|-----4-----4-------------|
--2----------------------|-------------------------|-------------------------|
-------------------------|--3----------------------|--4----------------------|
-------------------------|-------------------------|-------------------------|


  E  E  E  E  E  E  E  E     E  E  E  E  E  Q    E     E  E  E  E  E  Q    E   
--------------3--2--0--2--|--------------3----------|--------------3----------|
--------5-----------------|--------5--------5-------|--------5--------5-------|
-----4-----4--------------|-----4-----4-------------|-----4-----4-------------|
--0-----------------------|--2----------------------|-------------------------|
--------------------------|-------------------------|--3----------------------|
--------------------------|-------------------------|-------------------------|


  W                   W                   W                   W                 
-------------------|-------------------|-------------------|-------------------|
-------------------|-------------------|-------------------|-------------------|
-------------------|-------------------|-------------------|-------------------|
-------------------|-------------------|-------------------|-------------------|
-------------------|-------------------|-------------------|-------------------|
-------------------|-------------------|-------------------|-------------------|


  Q    E  E  E  Q    E     Q    E  E  E  Q    E     W                 
------------------------|------------------------|-------------------|
-------8-----8----------|-------8-----8----------|-------------------|
-------7-----7--9-------|-------7-----7--9-------|-------------------|
----------------9-------|----------------9-------|-------------------|
------------------------|------------------------|-------------------|
------------------------|------------------------|-------------------|


  W                   W                    W                 
-------------------|--------------------|-------------------|
-------------------|--------------------|-------------------|
-------------------|--2b----------------|--2----------------|
-------------------|--------------------|-------------------|
-------------------|--------------------|-------------------|
-------------------|--------------------|-------------------|


  W                   W                    W                 
-------------------|-------------------|--------------------|
-------------------|-------------------|--------------------|
-------------------|-------------------|--12----------------|
-------------------|-------------------|--12----------------|
-------------------|-------------------|--------------------|
-------------------|-------------------|--------------------|


                       \1                  \2                       
  W                    W                   H.             S  E   S  
--------------------|-------------------|-------------------12-----|
--------------------|-------------------|---------------/12-----12-|
--7~----------------|--9----------------|--L-----------------------|
--7~----------------|-------------------|--------------------------|
--------------------|-------------------|--------------------------|
--------------------|-------------------|--------------------------|


   H.             S  S  S  S  
-----------------15-12-15-12-|
--15b------------------------|
-----------------------------|
-----------------------------|
-----------------------------|
-----------------------------|


   S  S  S  S  S  S  S  S  S  S  S  S  S  S  S  S     H          E   Q.      
--15-12-15-12-15-12-15-12-15-12-15-12-15-12-15-12-|-------------------------|
--------------------------------------------------|--15b--------15\---------|
--------------------------------------------------|-------------------------|
--------------------------------------------------|-------------------------|
--------------------------------------------------|-------------------------|
--------------------------------------------------|-------------------------|


  W                   W                   W                   W                 
-------------------|-------------------|-------------------|-------------------|
-------------------|-------------------|-------------------|-------------------|
-------------------|-------------------|-------------------|-------------------|
-------------------|-------------------|-------------------|-------------------|
-------------------|-------------------|-------------------|-------------------|
-------------------|-------------------|-------------------|-------------------|


  W                   E  E  E  E  E  Q    E     E  E  E  E  E  Q    E   
-------------------|--------------3----------|--------------3----------|
-------------------|--------5--------5-------|--------5--------5-------|
-------------------|-----4-----4-------------|-----4-----4-------------|
-------------------|--2----------------------|-------------------------|
-------------------|-------------------------|--3----------------------|
-------------------|-------------------------|-------------------------|


  E  E  E  E  E  Q    E     E  E  E  E  E  E  E  E     E  E  E  E  E  Q    E   
--------------3----------|--------------3--2--0--2--|--------------3----------|
--------5--------5-------|--------5-----------------|--------5--------5-------|
-----4-----4-------------|-----4-----4--------------|-----4-----4-------------|
-------------------------|--0-----------------------|--2----------------------|
--4----------------------|--------------------------|-------------------------|
-------------------------|--------------------------|-------------------------|


  E  E  E  E  E  Q    E     Q.     Q.     Q       E  E  E  E  E  Q    E   
--------------3----------|---------------------|--------------3----------|
--------5--------5-------|---------3------L----|--------5--------5-------|
-----4-----4-------------|--0------2------L----|-----4-----4-------------|
-------------------------|--2------0------L----|--2----------------------|
--3----------------------|--3------------------|-------------------------|
-------------------------|---------------------|-------------------------|


  E  E  E  E  E  Q    E     E  E  E  E  E  Q    E     E  E  E  E  E  E  E  E   
--------------3----------|--------------3----------|--------------3--2--0--2--|
--------5--------5-------|--------5--------5-------|--------5-----------------|
-----4-----4-------------|-----4-----4-------------|-----4-----4--------------|
-------------------------|-------------------------|--0-----------------------|
--3----------------------|--4----------------------|--------------------------|
-------------------------|-------------------------|--------------------------|


  E  E  E  E  E  Q    E     E  E  E  E  E  Q    E     W                 
--------------3----------|--------------3----------|-------------------|
--------5--------5-------|--------5--------5-------|-------------------|
-----4-----4-------------|-----4-----4-------------|-------------------|
--2----------------------|-------------------------|-------------------|
-------------------------|--3----------------------|-------------------|
-------------------------|-------------------------|-------------------|


  W                   W                   W                   W                 
-------------------|-------------------|-------------------|-------------------|
-------------------|-------------------|-------------------|-------------------|
-------------------|-------------------|-------------------|-------------------|
-------------------|-------------------|-------------------|-------------------|
-------------------|-------------------|-------------------|-------------------|
-------------------|-------------------|-------------------|-------------------|


  W                   W                   W                   W                 
-------------------|-------------------|-------------------|-------------------|
-------------------|-------------------|-------------------|-------------------|
-------------------|-------------------|-------------------|-------------------|
-------------------|-------------------|-------------------|-------------------|
-------------------|-------------------|-------------------|-------------------|
-------------------|-------------------|-------------------|-------------------|


  W                   W                   W                   W                 
-------------------|-------------------|-------------------|-------------------|
-------------------|-------------------|-------------------|-------------------|
-------------------|-------------------|-------------------|-------------------|
-------------------|-------------------|-------------------|-------------------|
-------------------|-------------------|-------------------|-------------------|
-------------------|-------------------|-------------------|-------------------|


  W                   W                   W                   W                 
-------------------|-------------------|-------------------|-------------------|
-------------------|-------------------|-------------------|-------------------|
-------------------|-------------------|-------------------|-------------------|
-------------------|-------------------|-------------------|-------------------|
-------------------|-------------------|-------------------|-------------------|
-------------------|-------------------|-------------------|-------------------|


  W                   W                   W                   W                 
-------------------|-------------------|-------------------|-------------------|
-------------------|-------------------|-------------------|-------------------|
-------------------|-------------------|-------------------|-------------------|
-------------------|-------------------|-------------------|-------------------|
-------------------|-------------------|-------------------|-------------------|
-------------------|-------------------|-------------------|-------------------|


  W                   W                   W                   W                 
-------------------|-------------------|-------------------|-------------------|
-------------------|-------------------|-------------------|-------------------|
-------------------|-------------------|-------------------|-------------------|
-------------------|-------------------|-------------------|-------------------|
-------------------|-------------------|-------------------|-------------------|
-------------------|-------------------|-------------------|-------------------|


  W                   W                   W                   W                 
-------------------|-------------------|-------------------|-------------------|
-------------------|-------------------|-------------------|-------------------|
-------------------|-------------------|-------------------|-------------------|
-------------------|-------------------|-------------------|-------------------|
-------------------|-------------------|-------------------|-------------------|
-------------------|-------------------|-------------------|-------------------|


  W                   W                   W                   W                 
-------------------|-------------------|-------------------|-------------------|
-------------------|-------------------|-------------------|-------------------|
-------------------|-------------------|-------------------|-------------------|
-------------------|-------------------|-------------------|-------------------|
-------------------|-------------------|-------------------|-------------------|
-------------------|-------------------|-------------------|-------------------|


  W                   W                   W                   W                 
-------------------|-------------------|-------------------|-------------------|
-------------------|-------------------|-------------------|-------------------|
-------------------|-------------------|-------------------|-------------------|
-------------------|-------------------|-------------------|-------------------|
-------------------|-------------------|-------------------|-------------------|
-------------------|-------------------|-------------------|-------------------|


  W                   W                   W                   W                 
-------------------|-------------------|-------------------|-------------------|
-------------------|-------------------|-------------------|-------------------|
-------------------|-------------------|-------------------|-------------------|
-------------------|-------------------|-------------------|-------------------|
-------------------|-------------------|-------------------|-------------------|
-------------------|-------------------|-------------------|-------------------|


  W                   W                   W                   W                 
-------------------|-------------------|-------------------|-------------------|
-------------------|-------------------|-------------------|-------------------|
-------------------|-------------------|-------------------|-------------------|
-------------------|-------------------|-------------------|-------------------|
-------------------|-------------------|-------------------|-------------------|
-------------------|-------------------|-------------------|-------------------|


  W                   W                   W                   W                 
-------------------|-------------------|-------------------|-------------------|
-------------------|-------------------|-------------------|-------------------|
-------------------|-------------------|-------------------|-------------------|
-------------------|-------------------|-------------------|-------------------|
-------------------|-------------------|-------------------|-------------------|
-------------------|-------------------|-------------------|-------------------|


  W                   W                   W                   W                 
-------------------|-------------------|-------------------|-------------------|
-------------------|-------------------|-------------------|-------------------|
-------------------|-------------------|-------------------|-------------------|
-------------------|-------------------|-------------------|-------------------|
-------------------|-------------------|-------------------|-------------------|
-------------------|-------------------|-------------------|-------------------|


  W                   E  E  E  E  E  Q    E     E  E  E  E  E  Q    E   
-------------------|--------------3----------|--------------3----------|
-------------------|--------5--------5-------|--------5--------5-------|
-------------------|-----4-----4-------------|-----4-----4-------------|
-------------------|--2----------------------|-------------------------|
-------------------|-------------------------|--3----------------------|
-------------------|-------------------------|-------------------------|


  E  E  E  E  E  Q    E     E  E  E  E  E  E  E  E     E  E  E  E  E  Q    E   
--------------3----------|--------------3--2--0--2--|--------------3----------|
--------5--------5-------|--------5-----------------|--------5--------5-------|
-----4-----4-------------|-----4-----4--------------|-----4-----4-------------|
-------------------------|--0-----------------------|--2----------------------|
--4----------------------|--------------------------|-------------------------|
-------------------------|--------------------------|-------------------------|


  E  E  E  E  E  Q    E     Q.     Q.     Q       E  E  E  E  E  Q    E   
--------------3----------|---------------------|--------------3----------|
--------5--------5-------|---------3------L----|--------5--------5-------|
-----4-----4-------------|--0------2------L----|-----4-----4-------------|
-------------------------|--2------0------L----|--2----------------------|
--3----------------------|--3------------------|-------------------------|
-------------------------|---------------------|-------------------------|


  E  E  E  E  E  Q    E     E  E  E  E  E  Q    E     E  E  E  E  E  E  E  E   
--------------3----------|--------------3----------|--------------3--2--0--2--|
--------5--------5-------|--------5--------5-------|--------5-----------------|
-----4-----4-------------|-----4-----4-------------|-----4-----4--------------|
-------------------------|-------------------------|--0-----------------------|
--3----------------------|--4----------------------|--------------------------|
-------------------------|-------------------------|--------------------------|


  E  E  E  E  E  Q    E     E  E  E  E  E  Q    E     Q.     Q.     Q     
--------------3----------|--------------3----------|---------------------|
--------5--------5-------|--------5--------5-------|---------3------L----|
-----4-----4-------------|-----4-----4-------------|--0------2------L----|
--2----------------------|-------------------------|--2------0------L----|
-------------------------|--3----------------------|--3------------------|
-------------------------|-------------------------|---------------------|


  E  E  E  E  E  Q    E     E  E  E  E  E  Q    E     E  E  E  E  E  Q    E   
--------------3----------|--------------3----------|--------------3----------|
--------5--------5-------|--------5--------5-------|--------5--------5-------|
-----4-----4-------------|-----4-----4-------------|-----4-----4-------------|
--2----------------------|-------------------------|-------------------------|
-------------------------|--3----------------------|--4----------------------|
-------------------------|-------------------------|-------------------------|


  E  E  E  E  E  E  E  E     E  E  E  E  E  Q    E     E  E  E  E  E  Q    E   
--------------3--2--0--2--|--------------3----------|--------------3----------|
--------5-----------------|--------5--------5-------|--------5--------5-------|
-----4-----4--------------|-----4-----4-------------|-----4-----4-------------|
--0-----------------------|--2----------------------|-------------------------|
--------------------------|-------------------------|--3----------------------|
--------------------------|-------------------------|-------------------------|



=============================================================================
=============================================================================


        

Guitar - solo





   <                    <                 
   W                    W                 
--------------------|--------------------|
--------------------|--------------------|
--12----------------|--12----------------|
--12----------------|--12----------------|
--------------------|--------------------|
--------------------|--------------------|


            pick slide                                                       
   <                                                                         
   H        T          T T T T T T T T T T T T T T T    E  H        Q.       
------------x----------x-x---------------------------|----------------------|
------------x----------x-x-x-x-x---------------------|----------------------|
--12-----------------------x-x-x-x-x-x---------------|--7--9--------L\------|
--12-----------------------------x-x-x-x-x-x---------|--7--9--------L\------|
---------------------------------------x-x-x-x-x-x-x-|----------------------|
---------------------------------------------x-x-x-x-|----------------------|


  W                   W                   W                 
-------------------|-------------------|-------------------|
-------------------|-------------------|-------------------|
-------------------|-------------------|-------------------|
-------------------|-------------------|-------------------|
-------------------|-------------------|-------------------|
-------------------|-------------------|-------------------|


                                     pick slide                
   <                    <                                      
   W                    H.           T          T T T T T T T  
--------------------|----------------x----------x-------------|
--10----------------|--10------------x----------x-x-----------|
---9----------------|---9-------------------------x-x---------|
--------------------|-------------------------------x-x-x-----|
--------------------|---------------------------------x-x-x---|
--------------------|-----------------------------------x-x-x-|


  E  H        Q.         H.           E  E      H          E    Q.        
----------------------|----------------------|---------------------------|
--8-------------------|------------------3---|--L----------L-------------|
--7--9--------L\------|------------------2b--|--Lpb--------Lpb--2pb------|
-----9--------L\------|----------------------|---------------------------|
----------------------|----------------------|---------------------------|
----------------------|----------------------|---------------------------|


  Q.        E.     E.     E   E      W                      W                   
----------------------------------|----------------------|---------------------|
----------------------------------|----------------------|---------------------|
--2pbr------2pbr---2pbr---2b--2b--|--2pbr----------------|--2pb----------------|
----------------------------------|----------------------|---------------------|
----------------------------------|----------------------|---------------------|
----------------------------------|----------------------|---------------------|


  E  H.            E     H        E.   E.  E     W                  
----------------------|-----------------------|--------------------|
----------------------|--------------------5--|--7b----------------|
--0-------------------|---------------/4------|--------------------|
-----2~------------L--|--L--------------------|--------------------|
----------------------|-----------------------|--------------------|
----------------------|-----------------------|--------------------|


                                              \1                
  W                     H.            Q       W                 
---------------------|---------------------|-------------------|
--7pb----------------|--7b------------5----|-------------------|
---------------------|---------------------|--0----------------|
---------------------|---------------------|-------------------|
---------------------|---------------------|-------------------|
---------------------|---------------------|-------------------|


  \1                                                                 
  H.             Q        W                   H        E   E.   E.   
-----------------------|-------------------|------------------------|
-----------------------|-------------------|-------------------17---|
--L--------------------|-------------------|--------------16--------|
-----------------------|-------------------|------------------------|
-----------------------|-------------------|------------------------|
---------------/17\----|--0----------------|--L---------------------|


                                                             |---3--|  
   H          E   Q      E       E.    Q      S  E    Q      S   S  S  
-----------------------------|----------------------------------------|
--19b---------L--19b----19b--|--19b---19b-----L-19b--19b----15h-17-17-|
-----------------------------|----------------------------------------|
-----------------------------|----------------------------------------|
-----------------------------|----------------------------------------|
-----------------------------|----------------------------------------|


   W                     H         Q.       E    
---------------------|--------------------------|
---------------------|-------------5/------15b--|
--16~----------------|--16\---------------------|
---------------------|--------------------------|
---------------------|--------------------------|
---------------------|--------------------------|


                          |---3--|             |---3--|          |---3--|  
   Q.        Q.       E   S  S   S     Q.      S  S   S  Q.      S  S   S  
-------------------------12--------|----------12----------------12--------|
---Lpb------15b-------L-----15p-12-|--15---------15p-12-15---------15p-12-|
-----------------------------------|--------------------------------------|
-----------------------------------|--------------------------------------|
-----------------------------------|--------------------------------------|
-----------------------------------|--------------------------------------|


   H         E   E.   E.      H.            E   E   
--------------------------|--15-------------L------|
--15---------L--17--------|--------------------15--|
---------------------16---|------------------------|
--------------------------|------------------------|
--------------------------|------------------------|
--------------------------|------------------------|


   E.   E.   E.   E.   E   E     E  E  E  E   E  E  E  E   
--14--------13--------12------|---------------------------|
-------14--------13-------12--|---------------------------|
------------------------------|--7--7---------------------|
------------------------------|--------9--7---------------|
------------------------------|--------------10--7--------|
------------------------------|---------------------0--0--|


           pick slide                                
  H        T          T T T T T T T T T T T T T T T  
-----------x----------x-x---------------------------|
-----------x----------x-x-x-x-x---------------------|
--------------------------x-x-x-x-x-x---------------|
--------------------------------x-x-x-x-x-x---------|
--------------------------------------x-x-x-x-x-x-x-|
--L-----------------------------------------x-x-x-x-|


  E  E  E  E   E  E  E  E     Q.     H         E     E  E  E  E  E  E  E  E   
---------------------------|----------------------|--------------3--0--------|
---------------------------|----------------------|--3--3--0-----------------|
--7--7---------------------|---------2b--------L--|-----------2--------------|
--------9--7---------------|----------------------|--------------------------|
--------------10--7--------|----------------------|--------------------------|
---------------------0--0--|--L-------------------|--------------------0--0--|


           pick slide                                                           
  H        T          T T T T T T T T T T T T T T T    E  E  E  E  E  E  E  E   
-----------x----------x-x---------------------------|--------------------------|
-----------x----------x-x-x-x-x---------------------|--3--3--0-----------------|
--------------------------x-x-x-x-x-x---------------|-----------2--0-----------|
--------------------------------x-x-x-x-x-x---------|-----------------2--------|
--------------------------------------x-x-x-x-x-x-x-|--------------------------|
--L-----------------------------------------x-x-x-x-|--------------------0--0--|


  Q.      Q.       E  S S    E  Q     S  S  E  S S E  S S  
---------10b~-------------|----------12-12-12-------------|
-------------------8--x-x-|--8-----------------x-x-8--x-x-|
-------------------7--x-x-|--7--9-----9--9--9--x-x-7--x-x-|
--------------------------|-----9-------------------------|
--------------------------|-------------------------------|
--L-----------------------|-------------------------------|


  E  Q.      H            W                   W                 
------------12\--------|-------------------|-------------------|
--8--------------------|-------------------|-------------------|
--7--9-------9\--------|-------------------|-------------------|
-----------------------|-------------------|-------------------|
-----------------------|-------------------|-------------------|
-----------------------|-------------------|-------------------|


 



Duration Legend
---------------
W - whole
H - half
Q - quarter
E - 8th
S - 16th
T - 32nd
X - 64th
. - note dotted
|-n-|  - n-tuplets


Tablature Legend
----------------
L - tied note
x - dead note
g - grace note
(n) - ghost note
> - accentuded note
NH - natural harmonic
AH - artificial harmonic
TH - tapped harmonic
SH - semi harmonic
PH - pitch harmonic
h - hammer on
p - pull off
b - bend
br - bendRelease
pb - preBend
pbr - preBendRelease
brb - bendReleaseBend
\n/ - tremolo bar dip
\n - tremolo bar dive
-/n - tremolo bar Release up
/n\ - tremolo bar inverted dip
/n - tremolo bar return
-\n - tremolo bar Release down
S - shift slide
s - legato slide
/ -  slide into from below or out of upwards
\ -  slide into from above or out of downwards
~ - vibrato
W - wide vibrato
tr - trill
TP - tremolo picking
T - tapping
S - slap
P - pop
< - fade in
^ - brush up
v - brush down

comments
We did not receive enough feedback on this tab! Please rate:
print report bad tab
1 2 3 4 5
I want to post or [tab]
guest
You may want to rate the tab now too:
select rating
Please do not post tabs as comments. Select "correction" instead!