Oops, an error
Loading. Please wait.

Run Away Bass Tab

ver1
ver1

Whole song

Interactive

More versions @911Tabs.com
101 views 1 this week
no commentswrite comment
1 2 3 4 5
please rate
Autoscroll
+/-
esc
set tempo
stop
Contributor
Difficulty
intermediate
Hey! There's an official Ultimate Guitar app which is ideal
for learning songs when you're away from computer. Get the app
WARNING: You are trying to view
                                    content from Ultimate-Guitar.com
                                    in an unauthorized application,
                                    which is prohibited.

                                    Please use an official Ultimate
                                    Guitar Tabs application for iPhone,
                                    iPad or Android to access legitimate
                                    chords, guitar, bass, and drum tabs
                                    from Ultimate-Guitar.com database.

                                    Type "ultimate guitar tabs" in Apple
                                    App Store's or Android Market's
                                    search to find the application.
-----------------------------------------------------------------------------
		      Run Away - Great White (BASS)
                       
-----------------------------------------------------------------------------
Tabbed by: Scotto10

Tuning: Standard

=============================================================================

Bass



     W                   H.           E.  S    E  S E  S H        E   
G||-------------------|---------------------|------------------------|
D||-------------------|---------------------|------------------------|
A||-------------------|---------------------|------------------------|
E||-------------------|--5------------L-----|--5----5----5-----------|


  H.           E.  S    E  S E  S H        E     E  S E  S H        E   
---------------------|------------------------|------------------------|
---------------------|------------------------|------------------------|
---------------------|------------------------|------------------------|
--5------------L-----|--5----5----5-----------|--5----5----5-----------|


  E  S E  S H        E     H.           E.  S    E  S E  S H        E   
------------------------|---------------------|------------------------|
------------------------|---------------------|------------------------|
------------------------|---------------------|------------------------|
--5----5----5-----------|--5------------L-----|--5----5----5-----------|


  E  S E  S H        E     E  S E  S H        E     E  S E  S H        E   
------------------------|------------------------|------------------------|
------------------------|------------------------|------------------------|
------------------------|------------------------|------------------------|
--5----5----5-----------|--5----5----5-----------|--5----5----5-----------|


  E  S E  S E  E  E  S E  S    E  Q    Q    E  E  E     E  Q    Q    E  E  E   
----------------------------|------------------------|------------------------|
----------------------------|------------------------|------------------------|
----------------------------|------------------------|------------------------|
--5----5----5-----0----3----|--5-------5----5-----3--|--5-------5----5-----3--|


  E  S E  S E.  Q    S E     E  S E  S E  E  E  S E  S  
--------------------------|----------------------------|
--------------------------|----------------------------|
------------3-------------|----------------------------|
--5----5--------5------3--|--5----3----3-----0----3----|


  E  Q    Q    E  E  E     E  Q    Q    E  E  E     E  S E  S E.  Q    S E   
------------------------|------------------------|--------------------------|
------------------------|------------------------|--------------------------|
------------------------|------------------------|------------3-------------|
--5-------5----5-----3--|--5-------5----5-----3--|--5----5--------5------3--|


  E  S E  S E  E  E  S E  S    E  S E  S H        E     E  S E  S H        E   
----------------------------|------------------------|------------------------|
----------------------------|------------------------|------------------------|
----------------------------|------------------------|------------------------|
--5----3----3-----0----3----|--5----5----5-----------|--5----5----5-----------|


  E  S E  S H        E     E  S E  S E  E  E  E  E     E  S E  S H        E   
------------------------|---------------------------|------------------------|
------------------------|---------------------------|------------------------|
------------------------|---------------------5--7--|------------------------|
--5----5----5-----------|--5----5----5--7--8--------|--5----5----5-----------|


  E  S E  S H        E     E  S E  S H        E     E  S E  S E  E  E  E  E   
------------------------|------------------------|---------------------------|
------------------------|------------------------|---------------------------|
------------------------|------------------------|---------------------5--7--|
--5----5----5-----------|--5----5----5-----------|--5----5----5--7--8--------|


  E  S E  S H        E     E  S E  S H        E     E  S E  S H        E   
------------------------|------------------------|------------------------|
------------------------|------------------------|------------------------|
------------------------|------------------------|------------------------|
--5----5----5-----------|--5----5----5-----------|--5----5----5-----------|


  E  S E  S Q.     E  E     E  S E  S H        E     E  S E  S H        E   
-------------------------|------------------------|------------------------|
-------------------------|------------------------|------------------------|
-------------------3--3--|------------------------|------------------------|
--5----5----5------------|--5----5----5-----------|--5----5----5-----------|


  E  S E  S H        E     E  S E  S E  E  E  E  E     E  S E  S H        E   
------------------------|---------------------------|------------------------|
------------------------|---------------------------|------------------------|
------------------------|---------------------5--7--|------------------------|
--5----5----5-----------|--5----5----5--7--8--------|--5----5----5-----------|


  E  S E  S H        E     E  S E  S E  E  E  E  E     Q.     Q.     Q     
------------------------|---------------------------|---------------------|
------------------------|---------------------------|---------------------|
------------------------|---------------------------|----------------3----|
--5----5----5-----------|--5----5----5--------7--8--|--5------7-----------|


  E  Q.     Q    E  E     Q.     Q    E  E  E     Q.     Q    Q    E   
-----------------------|-----------------------|----------------------|
-----------------------|---------3----2--3-----|----------------------|
--3--5------2----------|--------------------3--|---------2----3----5--|
-----------------3--2--|--1--------------------|--3-------------------|


  Q.     Q    E  E  E     Q    E  E  E  E  E  E     Q.     Q    E  E  E   
-----------------------|-------------------------|-----------------------|
-----------------------|-------------------------|---------3----2--3-----|
---------7----5--3--0--|----------------0--2--3--|--------------------3--|
--0--------------------|--1----0--1--3-----------|--1--------------------|


  Q.     Q    Q    E     Q.     Q    Q    E     E  Q.     S S S S S S S S  
----------------------|----------------------|----------------------------|
----------------------|----------------------|--------------------2-------|
---------2----3----5--|---------7------------|--7---------0-2-3-5---5-3-2-|
--3-------------------|--0-----------0----0--|----------------------------|


  E  Q    Q    E  E  E     E  Q    Q    E  E  E     E  S E  S E.  Q    S E   
------------------------|------------------------|--------------------------|
------------------------|------------------------|--------------------------|
------------------------|------------------------|------------3-------------|
--5-------5----5-----3--|--5-------5----5-----3--|--5----5--------5------3--|


  E  S E  S E  E  E  S E  S    E  Q    Q    E  E  E     E  Q    Q    E  E  E   
----------------------------|------------------------|------------------------|
----------------------------|------------------------|------------------------|
----------------------------|------------------------|------------------------|
--5----3----3-----0----3----|--5-------5----5-----3--|--5-------5----5-----3--|


  E  S E  S E.  Q    S E     E  S E  S E  E  E  S E  S  
--------------------------|----------------------------|
--------------------------|----------------------------|
------------3-------------|----------------------------|
--5----5--------5------3--|--5----3----3-----0----3----|


  E  S E  S H        E     E  S E  S H        E     E  S E  S H        E   
------------------------|------------------------|------------------------|
------------------------|------------------------|------------------------|
------------------------|------------------------|------------------------|
--5----5----5-----------|--5----5----5-----------|--5----5----5-----------|


  E  S E  S E  E  E  E  E     E  S E  S H        E     E  S E  S H        E   
---------------------------|------------------------|------------------------|
---------------------------|------------------------|------------------------|
---------------------5--7--|------------------------|------------------------|
--5----5----5--7--8--------|--5----5----5-----------|--5----5----5-----------|


  E  S E  S H        E     E  S E  S E  E  E  E  E     E  S E  S H        E   
------------------------|---------------------------|------------------------|
------------------------|---------------------------|------------------------|
------------------------|---------------------------|------------------------|
--5----5----5-----------|--5----5----5--5--5--5--5--|--5----5----5-----------|


  E  S E  S H        E     E  S E  S H        E     E  S E  S E  E  E  E  E   
------------------------|------------------------|---------------------------|
------------------------|------------------------|---------------------------|
------------------------|------------------------|---------------------5--7--|
--5----5----5-----------|--5----5----5-----------|--5----5----5--7--8--------|


  E  S E  S H        E     E  S E  S Q.     E  E     E  S E  S H        E   
------------------------|-------------------------|------------------------|
------------------------|-------------------------|------------------------|
------------------------|-------------------------|------------------------|
--5----5----5-----------|--5----5----5------7--8--|--5----5----5-----------|


  E  S E  S E  E  E  E  E     E  S E  S H        E     E  S E  S Q.     E  E   
---------------------------|------------------------|-------------------------|
---------------------------|------------------------|-------------------------|
---------------------5--7--|------------------------|-------------------------|
--5----5----5--7--8--------|--5----5----5-----------|--5----5----5------7--8--|


  E  S E  S H        E     Q.     Q.     Q       E  Q.     Q    E  E   
------------------------|---------------------|-----------------------|
------------------------|---------------------|-----------------------|
------------------------|----------------3----|--3--5------2----------|
--5----5----5-----------|--5------7-----------|-----------------3--2--|


  Q.     Q    E  E  E     Q.     Q    Q    E     Q.     Q    E  E  E   
-----------------------|----------------------|-----------------------|
---------3----2--3-----|----------------------|-----------------------|
--------------------3--|---------2----3----5--|---------7----5--3--0--|
--1--------------------|--3-------------------|--0--------------------|


  Q    E  E  E  E  E  E     Q.     Q    E  E  E     Q.     Q    Q    E   
-------------------------|-----------------------|----------------------|
-------------------------|---------3----2--3-----|----------------------|
----------------0--2--3--|--------------------3--|---------2----3----5--|
--1----0--1--3-----------|--1--------------------|--3-------------------|


  Q.     Q    Q    E     E  Q.     S S S S S S S S    E  Q    Q    E  E  E   
----------------------|----------------------------|------------------------|
----------------------|--------------------2-------|------------------------|
---------7------------|--7---------0-2-3-5---5-3-2-|------------------------|
--0-----------0----0--|----------------------------|--5-------5----5-----3--|


  E  Q    Q    E  E  E     E  S E  S E.  Q    S E   
------------------------|--------------------------|
------------------------|--------------------------|
------------------------|------------3-------------|
--5-------5----5-----3--|--5----5--------5------3--|


  E  S E  S E  E  E  S E  S    E  Q    Q    E  E  E     E  Q    Q    E  E  E   
----------------------------|------------------------|------------------------|
----------------------------|------------------------|------------------------|
----------------------------|------------------------|------------------------|
--5----3----3-----0----3----|--5-------5----5-----3--|--5-------5----5-----3--|


  E  S E  S E.  Q    S E     Q    Q    Q    Q       E  E  E  E  E  E  E  E   
--------------------------|----------------------|--------------------------|
--------------------------|----------------------|--------------------------|
------------3-------------|----------------------|--2--2--2--2--2--2--2--2--|
--5----5--------5------3--|--3----3----3----3----|--------------------------|


  E  E  E  E  E  E  E  E     E  E  E  E  E  E  E  E   
--------------------------|--------------------------|
--------------------------|--------------------------|
--2--2--2--2--2--2--2--2--|--------------------------|
--------------------------|--3--3--3--3--3--3--3--3--|


  E  E  E  E  E  E  E  E     E  E  E  E  E  E  E  E   
--------------------------|--------------------------|
--------------------------|--------------------------|
-----------------------2--|--L--2--2--2--2--2--2--2--|
--3--3--3--3--3--3--3-----|--------------------------|


  E  E  E  E  E  E  E  E     E  E  E  E  E  E  E  E   
--------------------------|--------------------------|
--------------------------|--------------------------|
--2--2--2--2--2--2--2--2--|--------------------------|
--------------------------|--3--3--3--3--3--3--3--3--|


  E  E  E  E  E  E  E  E     E  E  E  E  E  E  E  E   
--------------------------|--------------------------|
--------------------------|--------------------------|
-----------------------2--|--2--2--2--2--2--2--2-----|
--3--3--3--3--3--5--L-----|-----------------------2--|


  E  E  E  E  E  E  E  E     E  E  E  E  E  E  E  E   
--------------------------|--------------------------|
--------------------------|--------------------------|
--------------------------|--------------------------|
--2--2--2--2--2--2--2--3--|--L--3--3--3--3--3--3--3--|


  E  E  E  E  E  E  E  E     E  E  E  E  E  E  E  E   
--------------------------|--------------------------|
--------------------------|--------------------------|
-----------------------2--|--L--2--2--2--2--2--2-----|
--3--3--3--3--3--3--3-----|-----------------------2--|


  E  E  E  E  E  E  E  E     E  E  E  E  E  E  E  E     E  E  E  E  E.  Q    S  
--------------------------|--------------------------|-------------------------|
--------------------------|--------------------------|-------------------------|
--------------------------|--------------------------|-------------------------|
--2--2--2--2--2--2--2--3--|--3--3--3--3--3--3--3--3--|--3--3--3--3--3---3----2-|


  Q    H.              W                   W                 
--------------------|-------------------|-------------------|
--------------------|-------------------|-------------------|
--------------------|-------------------|--0----------------|
--L----0------------|--L----------------|-------------------|


  W                   W                   W                 
-------------------|-------------------|-------------------|
-------------------|-------------------|-------------------|
-------------------|-------------------|-------------------|
-------------------|-------------------|-------------------|


  Q    Q     Q.     E     H        Q    E  E     E.  E.  E.  E.  E.  E.  E   
-----------------------|----------------------|-----------------------------|
-----------------------|----------------------|-----------------------------|
-----------------------|----------------------|-----------------------------|
--5----L\-----------5--|-------------------5--|--L---5---5---5---5---5---5--|


  S E.  E.  E.  E.  E.     E  Q    Q    E  E  E     E  Q    Q    E  E  E   
------------------------|------------------------|------------------------|
------------------------|------------------------|------------------------|
--------5---3-----------|------------------------|------------------------|
--L-0-----------0---3---|--5-------5----5--0--3--|--5-------5----5--0--3--|


  E  S E  S E.  Q    S E     E  S E  S E  E  E  S E  S  
--------------------------|----------------------------|
--------------------------|----------------------------|
------------3-------------|----------------------------|
--5----5--------5------3--|--5----3----3-----0----3----|


  E  Q    Q    E  E  E     E  Q    Q    E  E  E   
------------------------|------------------------|
------------------------|------------------------|
------------------------|------------------------|
--5-------5----5--0--3--|--5-------5----5-----3--|


  S S S S S S S S S S S S E  E     S S S S S S S S S S S S Q     
--------------------------------|-------------------------------|
--3-3-3-2-2-2-------------------|-------------------------------|
--------------5-5-5-3-3-3-2-----|--------------------5-5-5-3----|
-----------------------------5--|--3-3-3-2-2-2-0-0-0------------|


  E  Q    Q    E  E  E     E  E  E  Q    E  E  E     Q    E  Q    E  E  E   
------------------------|-------------------------|------------------------|
------------------------|----------------------7--|--5-------5----5--7--4--|
------------------------|-----------5----7--9-----|------------------------|
--7-------7----7-----5--|--7-----7----------------|------------------------|


  E  E  E  E  E  E  E  E     E  Q    Q    E  E  E     E  E  E  Q    E  E  E   
--------------------------|------------------------|-------------------------|
--5--2--4-----2-----------|------------------------|----------------------7--|
-----------5-----4--5--0--|--2-------2----2-----0--|-----------5----7--9-----|
--------------------------|------------------------|--7-----7----------------|


  Q    E  Q    E  E  E     E  E  E  E  E  E  E  E     E  Q    Q    E  E  E   
------------------------|--------------------------|------------------------|
--5-------5----5--7--4--|--5--2--4-----2-----------|------------------------|
------------------------|-----------5-----4--5--0--|------------------------|
------------------------|--------------------------|--7-------7----7-----5--|


  E  E  E  Q    E  E  E     Q    E  Q    E  E  E     E  E  E  E  E  E  E  E   
-------------------------|------------------------|-----------6--7--6--------|
----------------------7--|--5-------5----5--7--5--|--L--7--9-----------9--7--|
-----------5----7--9-----|------------------------|--------------------------|
--7-----7----------------|------------------------|--------------------------|


  E  Q    Q    E  E  E     E  E  E  E  E  E  E  E     Q    Q    E  Q.      
------------------------|--------------------------|----------------------|
------------------------|--------------------------|----------------------|
------------------------|-----------5-----5--------|----------------------|
--7-------7----7-----5--|--7-----7-----------7--5--|--3----3----3--3------|


  Q    Q    E  E  S E  S    W                   W                 
-------------------------|-------------------|-------------------|
-------------------------|-------------------|-------------------|
-------------------------|-------------------|-------------------|
--3----3----3--5----5----|--7----------------|--L----------------|


  W                   E  E  Q    H                      
-------------------|----------------------|-----------||
-------------------|----------------------|-----------||
-------------------|--5--0--2-------------|-----------||
-------------------|----------------------|-----------||




Duration Legend
---------------
W - whole
H - half
Q - quarter
E - 8th
S - 16th
T - 32nd
X - 64th
. - note dotted
|-n-|  - n-tuplets


Tablature Legend
----------------
L - tied note
x - dead note
g - grace note
(n) - ghost note
> - accentuded note
NH - natural harmonic
AH - artificial harmonic
TH - tapped harmonic
SH - semi harmonic
PH - pitch harmonic
h - hammer on
p - pull off
b - bend
br - bendRelease
pb - preBend
pbr - preBendRelease
brb - bendReleaseBend
\n/ - tremolo bar dip
\n - tremolo bar dive
-/n - tremolo bar Release up
/n\ - tremolo bar inverted dip
/n - tremolo bar return
-\n - tremolo bar Release down
S - shift slide
s - legato slide
/ -  slide into from below or out of upwards
\ -  slide into from above or out of downwards
~ - vibrato
W - wide vibrato
tr - trill
TP - tremolo picking
T - tapping
S - slap
P - pop
< - fade in
^ - brush up
v - brush down
comments
We did not receive enough feedback on this tab! Please rate:
print report bad tab
1 2 3 4 5
I want to post or [tab]
guest
You may want to rate the tab now too:
select rating
Please do not post tabs as comments. Select "correction" instead!