Oops, an error
Loading. Please wait.

Run Away Tab

ver1
ver1

Whole song

Interactive

More versions @911Tabs.com
219 views 1 this week
no commentswrite comment
1 2 3 4 5
please rate
Autoscroll
+/-
esc
set tempo
stop
Contributor
Difficulty
intermediate
WARNING: You are trying to view
                                    content from Ultimate-Guitar.com
                                    in an unauthorized application,
                                    which is prohibited.

                                    Please use an official Ultimate
                                    Guitar Tabs application for iPhone,
                                    iPad or Android to access legitimate
                                    chords, guitar, bass, and drum tabs
                                    from Ultimate-Guitar.com database.

                                    Type "ultimate guitar tabs" in Apple
                                    App Store's or Android Market's
                                    search to find the application.
-----------------------------------------------------------------------------
                      Run Away - Great White (GUITAR)
                       
-----------------------------------------------------------------------------
Tabbed by: Scotto10

Tuning: Standard

=============================================================================

Guitar - rhythm



     W                   W                   W                 
E||-------------------|-------------------|-------------------|
B||-------------------|-------------------|-------------------|
G||-------------------|-------------------|-------------------|
D||-------------------|-------------------|-------------------|
A||-------------------|-------------------|-------------------|
E||-------------------|-------------------|-------------------|


  W                   W                   W                   W                 
-------------------|-------------------|-------------------|-------------------|
-------------------|-------------------|-------------------|-------------------|
-------------------|-------------------|-------------------|-------------------|
-------------------|-------------------|-------------------|-------------------|
-------------------|-------------------|-------------------|-------------------|
-------------------|-------------------|-------------------|-------------------|


  W                   W                   W                   W                 
-------------------|-------------------|-------------------|-------------------|
-------------------|-------------------|-------------------|-------------------|
-------------------|-------------------|-------------------|-------------------|
-------------------|-------------------|-------------------|-------------------|
-------------------|-------------------|-------------------|-------------------|
-------------------|-------------------|-------------------|-------------------|


  W                   H        E  E.  E.     H        Q.     E   
-------------------|----------------------|---------------------|
-------------------|----------------------|------------------3--|
-------------------|----------------------|--2--------L------2--|
-------------------|--------------2-------|--2--------L------0--|
-------------------|--------------2-------|--0--------L---------|
-------------------|--------------0---3---|---------------------|


  H        Q.     E     H        Q.     E     H        E  E.  E.   
---------------------|---------------------|----------------------|
--L--------L---------|---------------------|----------------------|
--L--------L------5--|--L--------L------7--|--L-------------------|
--L--------L------3--|--L--------L------5--|--L-----------2-------|
---------------------|---------------------|--------------2-------|
---------------------|---------------------|--------------0---3---|


  H        Q.     E     H        Q.     E     H        Q.     E   
---------------------|---------------------|---------------------|
------------------3--|--L--------L---------|---------------------|
--2--------L------2--|--L--------L------5--|--L--------L------7--|
--2--------L------0--|--L--------L------3--|--L--------L------5--|
--0--------L---------|---------------------|---------------------|
---------------------|---------------------|---------------------|


  H        E  E.  E.     W                   W                 
----------------------|-------------------|-------------------|
----------------------|-------------------|-------------------|
--L-------------------|--2----------------|--2----------------|
--L-----------2-------|--2----------------|--2----------------|
--------------2-------|--0----------------|--0----------------|
--------------0---3---|-------------------|-------------------|


                                                           ^   
  W                   H        H           H.           E  E   
-------------------|--------------------|---------------------|
-------------------|--------------------|------------------6--|
--2----------------|--2-----------------|--2---------------5--|
--2----------------|--2-----------------|--2---------------3--|
--0----------------|--0-----------------|--0------------------|
-------------------|--------------------|---------------------|


                  ^                     ^                         
  H        Q.     E     H        Q.     E     H        Q.     E   
---------------------|---------------------|---------------------|
--L---------------8--|--L--------L------7--|--L--------L---------|
--L--------L------7--|--L--------L------7--|--L--------L---------|
--L--------L------5--|--L--------L------7--|--L--------L---------|
---------------------|---------------------|---------------------|
---------------------|---------------------|---------------------|


                  ^                     ^                     ^   
  H.           E  E     H        Q.     E     H        Q.     E   
---------------------|---------------------|---------------------|
------------------6--|--L--------L------8--|--L--------L------7--|
--2---------------5--|--L--------L------7--|--L--------L------7--|
--2---------------3--|--L--------L------5--|--L--------L------7--|
--0------------------|---------------------|---------------------|
---------------------|---------------------|---------------------|


                                        ^                     ^   
  H        Q.     E     H.           E  E     H        Q.     E   
---------------------|---------------------|---------------------|
--L--------L---------|------------------6--|--L---------------8--|
--L--------L---------|--2---------------5--|--L--------L------7--|
--L--------L---------|--2---------------3--|--L--------L------5--|
---------------------|--0------------------|---------------------|
---------------------|---------------------|---------------------|


                  ^                                           ^   
  H        Q.     E     H        Q.     E     H.           E  E   
---------------------|---------------------|---------------------|
--L--------L------7--|--L--------L---------|------------------6--|
--L--------L------7--|--L--------L---------|--2---------------5--|
--L--------L------7--|--L--------L---------|--2---------------3--|
---------------------|---------------------|--0------------------|
---------------------|---------------------|---------------------|


                  ^                                               
  H        Q.     E     H        Q.     E     Q.     Q.     Q     
---------------------|---------------------|---------------------|
--L--------L------8--|--L--------L---------|---------------------|
--L--------L------7--|--L--------L---------|---------------------|
--L--------L------5--|--L--------L---------|--2------5------5----|
---------------------|---------------------|--0------2------3----|
---------------------|---------------------|---------------------|


  E  Q.     Q    E  E     W                   W                 
-----------------------|--1----------------|--3----------------|
-----3-----------------|--1----------------|--3----------------|
-----2-----------------|-------------------|-------------------|
--L--0-----------------|--3----------------|-------------------|
--L---------2----------|--3----------------|--5----------------|
-----------------3--2--|--1----------------|--3----------------|


  W                   W                   W                   W                 
-------------------|--1----------------|--1----------------|--3----------------|
-------------------|--1----------------|--1----------------|--3----------------|
-------------------|-------------------|-------------------|-------------------|
--2----------------|--3----------------|--3----------------|-------------------|
--2----------------|--3----------------|--3----------------|--5----------------|
--0----------------|--1----------------|--1----------------|--3----------------|


  W                   E  Q.     S S S S S S S S    H        Q.     E   
-------------------|----------------------------|---------------------|
-------------------|------------------3-5-3-----|------------------3--|
-------------------|------------2-4-5-------4-2-|--2--------L------2--|
--2----------------|----------------------------|--2--------L------0--|
--2----------------|----------------------------|--0--------L---------|
--0----------------|--0-------------------------|---------------------|


  H        Q.     E     H        Q.     E     H        E  E.  E.   
---------------------|---------------------|----------------------|
--L--------L---------|---------------------|----------------------|
--L--------L------5--|--L--------L------7--|--L-------------------|
--L--------L------3--|--L--------L------5--|--L-----------2-------|
---------------------|---------------------|--------------2-------|
---------------------|---------------------|--------------0---3---|


  H        Q.     E     H        Q.     E     H        Q.     E   
---------------------|---------------------|---------------------|
------------------3--|--L--------L---------|---------------------|
--2--------L------2--|--L--------L------5--|--L--------L------7--|
--2--------L------0--|--L--------L------3--|--L--------L------5--|
--0--------L---------|---------------------|---------------------|
---------------------|---------------------|---------------------|


  H        E  E.  E.     W                   W                 
----------------------|-------------------|-------------------|
----------------------|-------------------|-------------------|
--L-------------------|--2----------------|--2----------------|
--L-----------2-------|--2----------------|--2----------------|
--------------2-------|--0----------------|--0----------------|
--------------0---3---|-------------------|-------------------|


                                                           ^   
  W                   H        H           H.           E  E   
-------------------|--------------------|---------------------|
-------------------|--------------------|------------------6--|
--2----------------|--2-----------------|--2---------------5--|
--2----------------|--2-----------------|--2---------------3--|
--0----------------|--0-----------------|--0------------------|
-------------------|--------------------|---------------------|


                  ^                     ^                         
  H        Q.     E     H        Q.     E     H        Q.     E   
---------------------|---------------------|---------------------|
--L---------------8--|--L--------L------7--|--L--------L---------|
--L--------L------7--|--L--------L------7--|--L--------L---------|
--L--------L------5--|--L--------L------7--|--L--------L---------|
---------------------|---------------------|---------------------|
---------------------|---------------------|---------------------|


                  ^                     ^                     ^   
  H.           E  E     H        Q.     E     H        Q.     E   
---------------------|---------------------|---------------------|
------------------6--|--L--------L------8--|--L--------L------7--|
--2---------------5--|--L--------L------7--|--L--------L------7--|
--2---------------3--|--L--------L------5--|--L--------L------7--|
--0------------------|---------------------|---------------------|
---------------------|---------------------|---------------------|


                                        ^                     ^   
  H        Q.     E     H.           E  E     H        Q.     E   
---------------------|---------------------|---------------------|
--L--------L---------|------------------6--|--L--------L------8--|
--L--------L---------|--2---------------5--|--L--------L------7--|
--L--------L---------|--2---------------3--|--L--------L------5--|
---------------------|--0------------------|---------------------|
---------------------|---------------------|---------------------|


                  ^                                           ^   
  H        Q.     E     H        Q.     E     H.           E  E   
---------------------|---------------------|---------------------|
--L--------L------7--|--L--------L---------|------------------6--|
--L--------L------7--|--L--------L---------|--2---------------5--|
--L--------L------7--|--L--------L---------|--2---------------3--|
---------------------|---------------------|--0------------------|
---------------------|---------------------|---------------------|


                  ^                                               
  H        Q.     E     H        Q.     E     Q.     Q.     Q     
---------------------|---------------------|---------------------|
--L--------L------8--|--L--------L---------|---------------------|
--L--------L------7--|--L--------L---------|---------------------|
--L--------L------5--|--L--------L---------|--2------5------5----|
---------------------|---------------------|--0------2------3----|
---------------------|---------------------|---------------------|


  E  Q.     Q    E  E     W                   W                 
-----------------------|--1----------------|--3----------------|
-----3-----------------|--1----------------|--3----------------|
-----2-----------------|-------------------|-------------------|
--L--0-----------------|--3----------------|-------------------|
--L---------2----------|--3----------------|--5----------------|
-----------------3--2--|--1----------------|--3----------------|


  W                   W                   W                   W                 
-------------------|--1----------------|--1----------------|--3----------------|
-------------------|--1----------------|--1----------------|--3----------------|
-------------------|-------------------|-------------------|-------------------|
--2----------------|--3----------------|--3----------------|-------------------|
--2----------------|--3----------------|--3----------------|--5----------------|
--0----------------|--1----------------|--1----------------|--3----------------|


  W                   E  Q.     S S S S S S S S    H        Q.     E   
-------------------|----------------------------|---------------------|
-------------------|------------------3-5-3-----|------------------3--|
-------------------|------------2-4-5-------5-4-|--2--------L------2--|
--2----------------|----------------------------|--2--------L------0--|
--2----------------|----------------------------|--0--------L---------|
--0----------------|--0-------------------------|---------------------|


  H        Q.     E     H        Q.     E     H        E  E.  E.   
---------------------|---------------------|----------------------|
--L--------L---------|---------------------|----------------------|
--L--------L------5--|--L--------L------7--|--L-------------------|
--L--------L------3--|--L--------L------5--|--L-----------2-------|
---------------------|---------------------|--------------2-------|
---------------------|---------------------|--------------0---3---|


  H        Q.     E     H        Q.     E     H        Q.     E   
---------------------|---------------------|---------------------|
------------------3--|--L--------L---------|---------------------|
--2--------L------2--|--L--------L------5--|--L--------L------7--|
--2--------L------0--|--L--------L------3--|--L--------L------5--|
--0--------L---------|---------------------|---------------------|
---------------------|---------------------|---------------------|


  H.           Q       W                   W                 
--------------------|-------------------|-------------------|
--------------------|-------------------|-------------------|
--L-----------------|-------------------|-------------------|
--L-----------------|--4----------------|--4----------------|
--------------------|--2----------------|--2----------------|
--------------------|-------------------|-------------------|


  W                   H.           E  E     W                 
-------------------|---------------------|-------------------|
-------------------|---------------------|-------------------|
--0----------------|--L------------L-----|-------------------|
--0----------------|--L------------L--4--|--L----------------|
-------------------|------------------2--|--L----------------|
--3----------------|--L------------L-----|-------------------|


  W                   W                   H        E  E  E  E   
-------------------|-------------------|-----------------------|
-------------------|-------------------|-----------------------|
-------------------|--0----------------|--L--------L-----------|
--4----------------|--0----------------|--L--------L--2-----4--|
--2----------------|-------------------|--------------0-----2--|
-------------------|--3----------------|--L--------L-----------|


  H.           E  E     H.           E  E     W                 
---------------------|---------------------|-------------------|
---------------------|---------------------|-------------------|
------------------2--|--L------------L--0--|--L----------------|
--L------------L--2--|--L------------L--0--|--L----------------|
--L------------L--0--|--L------------L-----|-------------------|
---------------------|------------------3--|--L----------------|


  H        E  E  E  E     H.           E  E     H.           E  E   
-----------------------|---------------------|---------------------|
-----------------------|---------------------|---------------------|
--L--------L-----------|------------------2--|--L------------L--0--|
--L--------L--2-----4--|--L------------L--2--|--L------------L--0--|
--------------0-----2--|--L------------L--0--|--L------------L-----|
--L--------L-----------|---------------------|------------------3--|


  W                   H        E.  Q    S    Q    H.            
-------------------|----------------------|--------------------|
-------------------|----------------------|--------------------|
--L----------------|--L--------L----------|--------------------|
--L----------------|--L--------L----------|--------------------|
-------------------|---------------5----5-|--L----2------------|
--L----------------|--L--------L---3----2-|--L----0------------|


  H        H           H        Q.     E     H        Q.     E   
--------------------|---------------------|---------------------|
--------------------|------------------3--|--L--------L---------|
--------------------|--2--------L------2--|--L--------L------5--|
--------------------|--2--------L------0--|--L--------L------3--|
--L-----------------|--0--------L---------|---------------------|
--L-----------------|---------------------|---------------------|


  H        Q.     E     H.           Q        H        Q.     E   
---------------------|---------------------|---------------------|
---------------------|---------------------|------------------3--|
--L--------L------7--|--L------------L\----|--2--------L------2--|
--L--------L------5--|--L------------L\----|--2--------L------0--|
---------------------|---------------------|--0--------L---------|
---------------------|---------------------|---------------------|


  H        Q.     E     H        H        E  E     H        E  E.  E.   
---------------------|--------------------------|----------------------|
--L--------L---------|--------------------------|----------------------|
--L--------L------5--|--L--------L-----------7--|--L-------------------|
--L--------L------3--|--L--------L-----------5--|--L-----------2-------|
---------------------|--------------------------|--------------2-------|
---------------------|--------------------------|--------------0---3---|


  H        Q.     E     H        Q.     E     H        Q.     E   
---------------------|---------------------|---------------------|
------------------3--|--L--------L---------|---------------------|
--2--------L------2--|--L--------L------5--|--L--------L------7--|
--2--------L------0--|--L--------L------3--|--L--------L------5--|
--0--------L---------|---------------------|---------------------|
---------------------|---------------------|---------------------|


  H        E  E.  E.     H        Q.     E     H        Q.     E   
----------------------|---------------------|---------------------|
----------------------|------------------3--|--L--------L---------|
--L-------------------|--2--------L------2--|--L--------L------5--|
--L-----------2-------|--2--------L------0--|--L--------L------3--|
--------------2-------|--0--------L---------|---------------------|
--------------0---3---|---------------------|---------------------|


  H        Q.     E     H.           Q        W                 
---------------------|---------------------|-------------------|
---------------------|---------------------|-------------------|
--L--------L------7--|--L------------L\----|-------------------|
--L--------L------5--|--L------------L\----|--4----------------|
---------------------|---------------------|--2----------------|
---------------------|---------------------|-------------------|


  W                   W                   W                   W                 
-------------------|-------------------|-------------------|-------------------|
-------------------|-------------------|-------------------|-------------------|
-------------------|--0----------------|--L----------------|-------------------|
--2----------------|--0----------------|--L----------------|--4----------------|
--0----------------|-------------------|-------------------|--2----------------|
-------------------|--3----------------|--L----------------|-------------------|


  W                   W                   H        E  E  S E  S  
-------------------|-------------------|------------------------|
-------------------|-------------------|------------------------|
-------------------|--0----------------|--L--------L--0----2----|
--2----------------|--0----------------|--L--------L--0----2----|
--0----------------|-------------------|-------------------0----|
-------------------|--3----------------|--L--------L--3---------|


  W                   W                   W                 
-------------------|-------------------|-------------------|
-------------------|-------------------|-------------------|
-------------------|-------------------|--0----------------|
--4----------------|--2----------------|--0----------------|
--2----------------|--0----------------|-------------------|
-------------------|-------------------|--3----------------|


  H        E  E  S E  S    W                   W                 
------------------------|-------------------|-------------------|
------------------------|-------------------|-------------------|
--L--------L--0----2----|-------------------|-------------------|
--L--------L--0----2----|--4----------------|--2----------------|
-------------------0----|--2----------------|--0----------------|
--L--------L--3---------|-------------------|-------------------|


  W                   H        E  E  S E  S    W                 
-------------------|------------------------|-------------------|
-------------------|------------------------|-------------------|
--0----------------|--L--------L--2----2----|--4----------------|
--0----------------|--L--------L--2----2----|--4----------------|
-------------------|--------------0----0----|--2----------------|
--3----------------|--L--------L------------|-------------------|


  W                   W                   E  E  Q    H                      
-------------------|-------------------|----------------------|-----------||
-------------------|-------------------|--3-------------------|-----------||
--L----------------|--L----------------|--2--2--4-------------|-----------||
--L----------------|--L----------------|--0--2--4-------------|-----------||
--L----------------|--L----------------|-----0--2-------------|-----------||
-------------------|-------------------|----------------------|-----------||




=======================================================================
=======================================================================



Guitar - solo






  H        E.  E.  E     H        E.  E.  E     Q      S S  E  H          
----------------------|----------------------|---------------------------|
----------------------|----------------------|---------------------------|
---------------6---7--|---------------6---7--|--9br----L-9p-7--9~--------|
--9--------L----------|--9--------L----------|---------------------------|
----------------------|----------------------|---------------------------|
----------------------|----------------------|---------------------------|


  S  S S S S S S S S S S S S S S S    H        E.  E.  E   
--7--------------------------------|----------------------|
----10-8-7-8-7---7-----------------|----------------------|
---------------9---9-7-6---6-7-6---|---------------6---7--|
-------------------------9-------9-|--L--------L----------|
-----------------------------------|----------------------|
-----------------------------------|----------------------|


  H        E.  E.  E     H.            E  E      Q       E  H          E    
----------------------|-----------------------|----------------------------|
----------------------|-----------------------|-----------------------10b--|
---------------6---7--|--9b------------L--9b--|--Lpbr----7--9~-------------|
--9--------L----------|-----------------------|----------------------------|
----------------------|-----------------------|----------------------------|
----------------------|-----------------------|----------------------------|


   H            Q    E   E       H           H          
-----------------------------|-------------------------|
---Lpbr---------L----7--10b--|---Lpb--------10b--------|
-----------------------------|-------------------------|
-----------------------------|-------------------------|
-----------------------------|-------------------------|
-----------------------------|-------------------------|


  S  S S S S S S S S S S S S S S  S    S S S S S S S S S S Q     E   
--7---------------------------------|-------------------------------|
----10-8-7-8-7---7------------------|-------------------------------|
---------------9---9-7-6-7---6------|-------------------------------|
---------------------------9---7s-9-|--5-7-4-5---4------------------|
------------------------------------|----------7---5-7-4-5-4~----2--|
------------------------------------|-------------------------------|


       TP   TP TP TP TP    TP TP  TP  TP TP  TP  TP                             
  Q    Q    E  E  E  E     E  E   E   E  E   E   E   E      W                   
------------------------|-------------------------------|----------------------|
------------------------|-------------------------------|----------------------|
------------------------|----------------9--11--12--14--|---Lb~----------------|
------------------4--5--|--7--9--11--12-----------------|----------------------|
--L----4----5--7--------|-------------------------------|----------------------|
------------------------|-------------------------------|----------------------|


   E.   E   E.   E.    Q     S     Q     H.               W                 
-------------------------------|--------18b------------|-------------------|
-------15--17---17b---17----15-|---L-------------------|-------------------|
--16---------------------------|-----------------------|-------------------|
-------------------------------|-----------------------|-------------------|
-------------------------------|-----------------------|-------------------|
-------------------------------|-----------------------|-------------------|


  W                   W                   W                   W                 





Duration Legend
---------------
W - whole
H - half
Q - quarter
E - 8th
S - 16th
T - 32nd
X - 64th
. - note dotted
|-n-|  - n-tuplets


Tablature Legend
----------------
L - tied note
x - dead note
g - grace note
(n) - ghost note
> - accentuded note
NH - natural harmonic
AH - artificial harmonic
TH - tapped harmonic
SH - semi harmonic
PH - pitch harmonic
h - hammer on
p - pull off
b - bend
br - bendRelease
pb - preBend
pbr - preBendRelease
brb - bendReleaseBend
\n/ - tremolo bar dip
\n - tremolo bar dive
-/n - tremolo bar Release up
/n\ - tremolo bar inverted dip
/n - tremolo bar return
-\n - tremolo bar Release down
S - shift slide
s - legato slide
/ -  slide into from below or out of upwards
\ -  slide into from above or out of downwards
~ - vibrato
W - wide vibrato
tr - trill
TP - tremolo picking
T - tapping
S - slap
P - pop
< - fade in
^ - brush up
v - brush down
comments
We did not receive enough feedback on this tab! Please rate:
print report bad tab
1 2 3 4 5
I want to post or [tab]
guest
You may want to rate the tab now too:
select rating
Please do not post tabs as comments. Select "correction" instead!