Oops, an error
Loading. Please wait.

1039 Tab

ver1
ver1

Album

More versions @911Tabs.com
36,218 views 15 this week
6 commentsread comments
1 2 3 4 5
worth learning
x 17
add to favorites launch autoscroll
font size
0
reset
Autoscroll
+/-
esc
set tempo
stop
Contributor
WARNING: You are trying to view
                                    content from Ultimate-Guitar.com
                                    in an unauthorized application,
                                    which is prohibited.

                                    Please use an official Ultimate
                                    Guitar Tabs application for iPhone,
                                    iPad or Android to access legitimate
                                    chords, guitar, bass, and drum tabs
                                    from Ultimate-Guitar.com database.

                                    Type "ultimate guitar tabs" in Apple
                                    App Store's or Android Market's
                                    search to find the application.
This is a really good album, well every green day is :D, but I thought
the other tabbed album was confusing,maby mine will be a bit easier to read. 

Green Day - 1039/Smoothed Out Slappy Hours Album
By:Andrew Mcshan

1.At The Library

Intro
e|---------------------------------------------------------------------------|
B|---------------------------------------------------------------------------|
G|-7-7-7-7-5-5-5-5-7-7-7-7-5-5-5-5-7-7-7-7-5-5-5-5--4-4-4-4-4----------------|
D|-7-7-7-7-5-5-5-5-7-7-7-7-5-5-5-5-7-7-7-7-5-5-5-5--4-4-4-4-4----------------|
A|-5-5-5-5-3-3-3-3-5-5-5-5-3-3-3-3-5-5-5-5-3-3-3-3--2-2-2-2-2----------------|
E|---------------------------------------------------------------------------|
Verse
e|---------------------------------------------------------------------------|
B|---------------------------------------------------------------------------|
G|--------------4--------5--------7---------------4------5--------7----------|
D|-----5------4---4----5---5----7---7------5----4---4--5---5----7---7--------|
A|---5---5--2--------3--------5----------5---5-2------3-------5--------------|
E|-3-----------------------------------3-------------------------------------|
Chorus
e|---------------------------------------------------------------------------|
B|---------------------------------------------------------------------------|
G|----7-----7-----7--5-------------------------------------------------------|
D|-2--7--2--7--2--7--5-------------------------------------------------------|
A|-2--5--2--5--2--5--3-------------------------------------------------------|
E|-0-----0-----0-------------------------------------------------------------|
Bridge
e|---------------------------------------------------------------------------|
B|---------------------------------------------------------------------------|
G|---------------7-7-7-7-----------------------------------------------------|
D|-5-5-5-5-5-5-5-7-7-7-7-----------------------------------------------------|
A|-5-5-5-5-5-5-5-5-5-5-5-----------------------------------------------------|
E|-3-3-3-3-3-3-3-------------------------------------------------------------|

2.Don't Leave Me

Intro/Verse
e|---------------------------------------------------------------------------|
B|---------------------------------------------------------------------------|
G|-4-4-4-4-----------7-7-7-7-4-4-4-4-----------------------------------------|
D|-4-4-4-4--7-7-7-7--7-7-7-7-4-4-4-4-----------------------------------------|
A|-2-2-2-2--7-7-7-7--5-5-5-5-2-2-2-2-----------------------------------------|
E|----------5-5-5-5----------------------------------------------------------|
Chorus
e|---------------------------------------------------------------------------|
B|---------------------------------------------------------------------------|
G|---------------------------------------------------------------------------|
D|-7-7-7-7-7--4-4-4-4-4--7-7-7-7-7--4-4-4-4-4--------------------------------|
A|-7-7-7-7-7--4-4-4-4-4--7-7-7-7-7--4-4-4-4-4--------------------------------|
E|-5-5-5-5-5--2-2-2-2-2--5-5-5-5-5--2-2-2-2-2--------------------------------|

3.I Was There

Intro
e|---------------------------------------------------------------------------|
B|---------------------------------------------------------------------------|
G|-10-10-10-10-9--9--9--9--10-10-10-10-9---9--9--9---------------------------|
D|-10-10-10-10-10-10-10-10-10-10-10-10-10--10-10-10--------------------------|
A|---------------------------------------------------------------------------|
E|---------------------------------------------------------------------------|
Verse
e|---------------------------------------------------------------------------|
B|---------------------------------------------------------------------------|
G|-----5------------5-------------3-------------3----------------------------|
D|---5---5--------5---5---------3---3---------3----3-------------------------|
A|-3-------3----3--------3----1--------1----1--------1-----------------------|
E|---------------------------------------------------------------------------|
Chorus
e|---------------------------------------------------------------------------|
B|---------------------------------------------------------------------------|
G|-----------5-5-5-5-5-----------5-5-5-5-5-3-3-3-3-3-5-5-5-5-5---------------|
D|-3-3-3-3-3-5-5-5-5-5-3-3-3-3-3-5-5-5-5-5-3-3-3-3-3-5-5-5-5-5---------------|
A|-3-3-3-3-3-3-3-3-3-3-3-3-3-3-3-3-3-3-3-3-1-1-1-1-1-3-3-3-3-3---------------|
E|-1-1-1-1-1-----------1-1-1-1-1---------------------------------------------|

4.Disappearing Boy

Intro/Verse
e|---------------------------------------------------------------------------|
B|---------------------------------------------------------------------------|
G|-------------------------7-7-7-7-------------------------------------------|
D|-7-7-7-7-4-4-4-4-5-5-5-5-7-7-7-7-------------------------------------------|
A|-7-7-7-7-4-4-4-4-5-5-5-5-5-5-5-5-------------------------------------------|
E|-5-5-5-5-2-2-2-2-3-3-3-3---------------------------------------------------|
Chorus
e|---------------------------------------------------------------------------|
B|---------------------------------------------------------------------------|
G|-4-4-4-4-4-5-5-5-5---------------------------------------------------------|
D|-4-4-4-4-4-5-5-5-5--5-5-5-5-5-5-5------------------------------------------|
A|-2-2-2-2-2-3-3-3-3--5-5-5-5-5-5-5------------------------------------------|
E|--------------------3-3-3-3-3-3-3------------------------------------------|
Bridge
e|---------------------------------------------------------------------------|
B|---------------------------------------------------------------------------|
G|-----7--------5------------------------------------------------------------|
D|---7---7----5---5------5-----------5----------x4---------------------------|
A|-5--------3----------5---5-------5---5-------------------------------------|
E|-------------------3-------3--3---------3----------------------------------|


5.Green Day

Intro
e|---------------------------------------------------------------------------|
B|---------------------------------------------------------------------------|
G|---9-7---------------------------------------------------------------------|
D|-9-9-7--9------------------------------------------------------------------|
A|-9-7-5--9------------------------------------------------------------------|
E|-7------7------------------------------------------------------------------|
Verse
e|---------------------------------------------------------------------------|
B|---------------------------------------------------------------------------|
G|---------9-9-9-9---------9-9-9-9-7-7-7-6-6-6-6-----------------------------|
D|-6-6-6-6-9-9-9-9-9-9-9-9-9-9-9-9-7-7-7-6-6-6-6-9-9-9-9-4-4-4-4-7-----------|
A|-6-6-6-6-7-7-7-7-9-9-9-9-7-7-7-7-5-5-5-4-4-4-4-9-9-9-9-4-4-4-4-7-----7-7---|
E|-4-4-4-4---------7-7-7-7-----------------------7-7-7-7-2-2-2-2-5-5-5-------|
Chorus
e|---------------------------------------------------------------------------|
B|---------------------------------------------------------------------------|
G|---------------------4-4-4-4-4---------------------------------------------|
D|-6-6-6-6-6-2-2-2-2-2-4-4-4-4-4---------------------------------------------|
A|-6-6-6-6-6-2-2-2-2-2-2-2-2-2-2---------------------------------------------|
E|-4-4-4-4-4-0-0-0-0-0-------------------------------------------------------|
Outro
e|---------------------------------------------------------------------------|
B|---------------------------------------------------------------------------|
G|-----7-7-6-6---------------------------------------------------------------|
D|-2-2-7-7-6-6-9-9-7-7-------------------------------------------------------|
A|-2-2-5-5-4-4-9-9-7-7-------------------------------------------------------|
E|-0-0---------7-7-5-5-------------------------------------------------------|

6.Going To Pasalacqua

Intro
e|---------------------------------------------------------------------------|
B|-----3/2h3p2---------------------------------------------------------------|
G|---------------------------------------------------------------------------|
D|-7-7----------7------------------------------------------------------------|
A|-7-7----------7------------------------------------------------------------|
E|-5-5----------5------------------------------------------------------------|
Verse             
e|---------------------------------------------------------------------------|
B|---------------------------------------------------------------------------|
G|---------7-7-7-7-----------------------------------------------------------|
D|-2-2-2-2-7-7-7-7--7-7-7-7-7-7----------------------------------------------|
A|-2-2-2-2-5-5-5-5--7-7-7-7-7-7----------------------------------------------|
E|-0-0-0-0----------5-5-5-5-5-5----------------------------------------------|
Chorus
e|---------------------------------------------------------------------------|
B|---------------------------------------------------------------------------|
G|-7-7-7-7-7---------------------7-7-7-7-7-----------------------------------|
D|-7-7-7-7-7-7-7-7-7-7-2-2-2-2-2-7-7-7-7-7-7-7-7-7-7-------------------------|
A|-5-5-5-5-5-7-7-7-7-7-2-2-2-2-2-5-5-5-5-5-7-7-7-7-7-------------------------|
E|-----------5-5-5-5-5-0-0-0-0-0-----------5-5-5-5-5-------------------------|
Verse 2
e|---------------------------------------------------------------------------|
B|---------------------------------------------------------------------------|
G|-------------------------7-7-7-7-------------------------------------------|
D|-7-7-7-7-2-2-2-2-4-4-4-4-7-7-7-7-------------------------------------------|
A|-7-7-7-7-2-2-2-2-4-4-4-4-5-5-5-5-------------------------------------------|
E|-5-5-5-5-0-0-0-0-2-2-2-2---------------------------------------------------|
Bridge
e|---------------------------------------------------------------------------|
B|---------------------------------------------------------------------------|
G|---7---7---7---7---7-------------------------------------------------------|
D|-7-7-7-7-7-7-7-7-7-7-------------------------------------------------------|
A|-7-5-7-5-7-5-7-5-7-5-------------------------------------------------------|
E|-5---5---5---5---5---------------------------------------------------------|
Outro
e|---------------------------------------------------------------------------|
B|---------------------------------------------------------------------------|
G|-------7-------------------------------------------------------------------|
D|-7-2-4-7-7-----------------------------------------------------------------|
A|-7-2-4-5-7-----------------------------------------------------------------|
E|-5-0-2---5-----------------------------------------------------------------|

7.16

Intro/Verse
e|---------------------------------------------------------------------------|
B|---------------------------------------------------------------------------|
G|-4-4-4-4---------9-9-9-9---------------------------------------------------|
D|-4-4-4-4-7-7-7-7-9-9-9-9-9-9-9-9-------------------------------------------|
A|-2-2-2-2-7-7-7-7-7-7-7-7-9-9-9-9-------------------------------------------|
E|---------5-5-5-5---------7-7-7-7-------------------------------------------|
Chorus
e|---------------------------------------------------------------------------|
B|---------------------------------------------------------------------------|
G|-5-5-5-5-5-7-7-7-7-7-------------------------------------------------------|
D|-5-5-5-5-5-7-7-7-7-7-9-9-9-9-9---------------------------------------------|
A|-3-3-3-3-3-5-5-5-5-5-9-9-9-9-9---------------------------------------------|
E|---------------------7-7-7-7-7---------------------------------------------|

8.Road To Acceptance

Intro
e|---------------------------------------------------------------------------|
B|---------------------------------------------------------------------------|
G|-6-6-6-6-7-7-7-7-6-6-6-6-7-7-7-7-6-6-6-6-7-7-7-7-9-9-9-9-------------------|
D|-4-4-4-4-5-5-5-5-4-4-4-4-5-5-5-5-4-4-4-4-5-5-5-5-7-7-7-7-------------------|
A|---------------------------------------------------------------------------|
E|---------------------------------------------------------------------------|
Chorus
e|---------------------------------------------------------------------------|
B|---------------------------------------------------------------------------|
G|---------------7---7-7-7-5-5-5-------7-7-7-5-5-5-------5-5-5-------5-------|
D|-9-9-9-7-7-7-4-7-7-7-7-7-5-5-5-7-7-7-7-7-7-5-5-5-5-5-5-5-5-5-5-5-5-5-------|
A|-9-9-9-7-7-7-4-5-7-5-5-5-3-3-3-7-7-7-5-5-5-3-3-3-5-5-5-3-3-3-5-5-5-3-------|
E|-7-7-7-5-5-5-2---5-------------5-5-5-------------3-3-3-------3-3-3---------|
Outro
e|---------------------------------------------------------------------------|
B|---------------------------------------------------------------------------|
G|-5-4---5-4---5-4-----7-----------------------------------------------------|
D|-5-4-5-5-4-5-5-4-5---7-----------------------------------------------------|
A|-3-2-5-3-2-5-3-2-5---5-----------------------------------------------------|
E|-----3-----3-----3---------------------------------------------------------|


9.Rest

Intro/Verse
e|---------------------------------------------------------------------------|
B|---------------------------------------------------------------------------|
G|--------0-------------0-------------0--------------------------------------|
D|------0---0---------0---0---------0---0---------0----0---------------------|
A|----0-------0-----0-------0-----0-------0-----0----0-----------------------|
E|--3-----------3-1-----------1-3-----------3-1----1-------------------------|
Chorus
e|---------------------------------------------------------------------------|
B|---------------------------------------------------------------------------|
G|--------0---------------0-------------0-----------0--------0--------0------|
D|------0---0-----------0---0---------0---0--------0-0-----0--0------0--0----|
A|---0---------0------0-------0-----0--------0----0---0---0----0----0----0---|
E|-6--------------6-5-----------5-6------------6-5-----5-8------8-10------10-|

10.The Judge's Daughter

Verse
e|---------------------------------------------------------------------------|
B|---------------------------------------------------------------------------|
G|-----------------5-5-5-5---------------------------------------------------|
D|-5-5-5-5-3-3-3-3-5-5-5-5-5-5-5-5-------------------------------------------|
A|-5-5-5-5-3-3-3-3-3-3-3-3-5-5-5-5-------------------------------------------|
E|-3-3-3-3-1-1-1-1---------3-3-3-3-------------------------------------------|
Chorus
e|---------------------------------------------------------------------------|
B|---------------------------------------------------------------------------|
G|-5-5-5-5-7-7-7-7-----------------------------------------------------------|
D|-5-5-5-5-7-7-7-7-5-5-5-5/3/5-5-5-------------------------------------------|
A|-3-3-3-3-5-5-5-5-5-5-5-5/3/5-5-5-------------------------------------------|
E|-----------------3-3-3-3/1/3-3-3-------------------------------------------|
Bridge
e|---------------------------------------------------------------------------|
B|---------------------------------------------------------------------------|
G|---------------------------------------------------------------------------|
D|-5-5-5/3/5-5-5-----x3------------------------------------------------------|
A|-5-5-5/3/5-5-5-------------------------------------------------------------|
E|-3-3-3/1/3-3-3-------------------------------------------------------------|

11.Paper Lanterns

Intro
e|---3--2--------------------------------------------------------------------|
B|-2-0--3-2------------------------------------------------------------------|
G|-2-0--2-2------------------------------------------------------------------|
D|-2-0----2------------------------------------------------------------------|
A|---2-----------------------------------------------------------------------|
E|---3-----------------------------------------------------------------------|
Verse
e|---------------------------------------------------------------------------|
B|---------------------------------------------------------------------------|
G|-3-3-3-3-----------------3-3-3-3---------8-8-8-8---------------------------|
D|-3-3-3-3-3-3-3-3-2-2-2-2-3-3-3-3-3-3-3-3-8-8-8-8-8-8-8-8-------------------|
A|-1-1-1-1-3-3-3-3-2-2-2-2-1-1-1-1-3-3-3-3-6-6-6-6-8-8-8-8-------------------|
E|---------1-1-1-1-0-0-0-0---------1-1-1-1---------6-6-6-6-------------------|

12.Why Do You Want Him?

Intro/Chorus
e|---------------------------------------------------------------------------|
B|---------------------------------------------------------------------------|
G|-8-8-8-8-5-5-5-5-----------------------------------------------------------|
D|-8-8-8-8-5-5-5-5-6-6-6-6-8-8-8-8-------------------------------------------|
A|-6-6-6-6-3-3-3-3-6-6-6-6-8-8-8-8-------------------------------------------|
E|-----------------4-4-4-4-6-6-6-6-------------------------------------------|
Verse
e|---------------------------------------------------------------------------|
B|---------------------------------------------------------------------------|
G|-9-9-9-9-------------------------------------------------------------------|
D|-9-9-9-9-7-7-7-7-4-4-4-4-5-5-5-5-------------------------------------------|
A|-7-7-7-7-7-7-7-7-4-4-4-4-5-5-5-5-------------------------------------------|
E|---------5-5-5-5-2-2-2-2-3-3-3-3-------------------------------------------|
Bridge
e|---------------------------------------------------------------------------|
B|---------------------------------------------------------------------------|
G|-----4---------------------------------------------------------------------|
D|-5-7-4-7-5-----------------------------------------------------------------|
A|-5-7-2-7-5-----------------------------------------------------------------|
E|-3-5---5-3-----------------------------------------------------------------|

13.409 In Your Coffeemaker

Intro
e|---------------------------------------------------------------------------|
B|---------------------------------------------------------------------------|
G|-6-6-----------------------------------------------------------------------|
D|-6-6-5-5-6-----------------------------------------------------------------|
A|-4-4-5-5-6-----------------------------------------------------------------|
E|-----3-3-4-----------------------------------------------------------------|
Verse
e|---------------------------------------------------------------------------|
B|---------------------------------------------------------------------------|
G|---------------------------------------------------------------------------|
D|-6-6-6-6-4-4-4-4-6-6-6-6-4-4-4-4-------------------------------------------|
A|-6-6-6-6-4-4-4-4-6-6-6-6-4-4-4-4-------------------------------------------|
E|-4-4-4-4-2-2-2-2-4-4-4-4-2-2-2-2-------------------------------------------|
Chorus
e|---------------------------------------------------------------------------|
B|---------------------------------------------------------------------------|
G|-6-6-6-6-6---------------6-6-6-8-8-8---------------------------------------|
D|-6-6-6-6-6-6-6-6-6-6--x3-6-6-6-8-8-8---------------------------------------|
A|-4-4-4-4-4-6-6-6-6-6-----4-4-4-6-6-6---------------------------------------|
E|-----------4-4-4-4-4-------------------------------------------------------|

14.Knowledge


e|---------------------------------------------------------------------------|
B|---------------------------------------------------------------------------|
G|-7-7-7-7-7-5-5-5-5-5-10-10-10-10-10----------------------------------------|
D|-7-7-7-7-7-5-5-5-5-5-10-10-10-10-10----------------------------------------|
A|-5-5-5-5-5-3-3-3-3-3-8--8--8--8--8-----------------------------------------|
E|---------------------------------------------------------------------------|

15.1,000 Hours

Intro/Verse
e|---------------------------------------------------------------------------|
B|---------------------------------------------------------------------------|
G|---------------------------------------------------------------------------|
D|-7-7-7-7-7-7-7-7-----------------------------------------------------------|
A|-7-7-7-7-7-7-7-7-----------------------------------------------------------|
E|-5-5-5-5-5-5-5-5-----------------------------------------------------------|
Chorus
e|---------------------------------------------------------------------------|
B|---------------------------------------------------------------------------|
G|---------------------------------------------------------------------------|
D|-4-4-4-4-4-5-5-5-5-5----x3-------------------------------------------------|
A|-4-4-4-4-4-5-5-5-5-5-------------------------------------------------------|
E|-2-2-2-2-2-3-3-3-3-3-------------------------------------------------------|


16.Dry Ice

Intro
e|---------------------------------------------------------------------------|
B|--------1-2-1-4------------------------------------------------------------|
G|------1--------------------------------------------------------------------|
D|-6--1----------------------------------------------------------------------|
A|-6-------------------------------------------------------------------------|
E|-4-------------------------------------------------------------------------|
Verse
e|---------------------------------------------------------------------------|
B|---------------------------------------------------------------------------|
G|---------6-6-6-6-7-7-7-7------------------6-6-6-6-7-7-7-7------------------|
D|-7-7-7-7-6-6-6-6-7-7-7-7-7-7-7-7--7-7-7-7-6-6-6-6-7-7-7-7-2-2-2-2----------|
A|-7-7-7-7-4-4-4-4-5-5-5-5-7-7-7-7--7-7-7-7-4-4-4-4-5-5-5-5-2-2-2-2----------|
E|-5-5-5-5-----------------5-5-5-5--5-5-5-5-----------------0-0-0-0----------|
Chorus
e|---------------------------------------------------------------------------|
B|---------------------------------------------------------------------------|
G|-7-----------7-7-7-9-9-9---------------------------------------------------|
D|-7--7----x3--7-7-7-9-9-9---------------------------------------------------|
A|-5--7--------5-5-5-7-7-7---------------------------------------------------|
E|----5----------------------------------------------------------------------|
Bridge
e|---------------------------------------------------------------------------|
B|---------------------------------------------------------------------------|
G|-------------------7-7-7-7-------------------------------------------------|
D|-7-7-7-7-7-3-3-3-3-7-7-7-7-------------------------------------------------|
A|-7-7-7-7-7-3-3-3-3-5-5-5-5-------------------------------------------------|
E|-5-5-5-5-5-1-1-1-1---------------------------------------------------------|

17.Only Of You

Intro/Chorus
e|---------------------------------------------------------------------------|
B|---------------------------------------------------------------------------|
G|-----7---------------------------------------------------------------------|
D|-3-5-7-9-------------------------------------------------------------------|
A|-3-5-5-9-------------------------------------------------------------------|
E|-1-3---7-------------------------------------------------------------------|
Verse
e|---------------------------------------------------------------------------|
B|---------------------------------------------------------------------------|
G|-----------------7-7-7-7---------------------------------------------------|
D|-7-7-7-7-9-9-9-9-7-7-7-7-2-2-2-2-------------------------------------------|
A|-7-7-7-7-9-9-9-9-5-5-5-5-2-2-2-2-------------------------------------------|
E|-5-5-5-5-7-7-7-7---------0-0-0-0-------------------------------------------|
Bridge
e|---------------------------------------------------------------------------|
B|---------------------------------------------------------------------------|
G|-------------------9---9---9---9-------------------------------------------|
D|-9-9-9-9-7-7-7-7-4-9-4-9-4-9-4-9-------------------------------------------|
A|-9-9-9-9-7-7-7-7-4-7-4-7-4-7-4-7-------------------------------------------|
E|-7-7-7-7-5-5-5-5-2---2---2---2---------------------------------------------|

18.The One I Want

Intro
e|---------------------------------------------------------------------------|
B|---------------------------------------------------------------------------|
G|-8-------------------------------------------------------------------------|
D|-8--3-3-3-3----------------------------------------------------------------|
A|-6--3-3-3-3----------------------------------------------------------------|
E|----1-1-1-1----------------------------------------------------------------|
Verse
e|---------------------------------------------------------------------------|
B|---------------------------------------------------------------------------|
G|-3-3-3-3-----------------9-9-9-9-------------------------------------------|
D|-3-3-3-3-3-3-3-3-6-6-6-6-9-9-9-9-------------------------------------------|
A|-1-1-1-1-3-3-3-3-6-6-6-6-7-7-7-7-------------------------------------------|
E|---------1-1-1-1-4-4-4-4---------------------------------------------------|
Chorus
e|---------------------------------------------------------------------------|
B|---------------------------------------------------------------------------|
G|-6-6-6-6---------3-3-3-3---------------------------------------------------|
D|-6-6-6-6-6-6-6-6-3-3-3-3---------------------------------------------------|
A|-4-4-4-4-6-6-6-6-1-1-1-1---------------------------------------------------|
E|---------4-4-4-4-----------------------------------------------------------|

19.I Want To Be Alone

Intro
e|---------------------------------------------------------------------------|
B|---------------------------------------------------------------------------|
G|----2---0---2---0-----0-------0------0-------0-----------------------------|
D|--0---0---0---0-----0---0---0--0---0---0---0---0---------------------------|
A|------------------5-------3------5-------3---------------------------------|
E|---------------------------------------------------------------------------|
Verse
e|---------------------------------------------------------------------------|
B|---------------------------------------------------------------------------|
G|---------------------7-7-7-7-7---------------------------------------------|
D|-5-5-5-5-5-7-7-7-7-7-7-7-7-7-7-9-9-9-9-9-----------------------------------|
A|-5-5-5-5-5-7-7-7-7-7-5-5-5-5-5-9-9-9-9-9-----------------------------------|
E|-3-3-3-3-3-5-5-5-5-5-----------7-7-7-7-7-----------------------------------|
comments
print report bad tab
6 comments total. Showing first comments.
0 reply
distortionsucks wrote on September 27 2004, 12:00 am

not bad, it reads easy, but all the powerchords you have should be bar chords

0 reply
distortionsucks wrote on October 2 2004, 12:00 am

dude im sorry, but i must have hit my head or somthing right before i said that or maybe i just didnt look at all the tabs, but this *** sucks. there are no solos, all the bridges are off by a ***ing mile, and u left out so many parts. dammit, this tab looks like it took you 5 minutes

0 reply
Liam wrote on February 3 2005, 12:00 am

i kinda agree with the other guy but he dont have to have solo's cos it could be a ***ing rhythm tab

I want to post or [tab]
guest
You may want to rate the tab now too:
select rating
Please do not post tabs as comments. Select "correction" instead!