Oops, an error
Loading. Please wait.

1039 Tab

ver2
ver2

Album

Interactive

More versions @911Tabs.com
5,348 views 12 this week
6 commentsread comments
1 2 3 4 5
not so good
x 13
Autoscroll
+/-
esc
set tempo
stop
Contributor
Hey! There's an official Ultimate Guitar app which is ideal
for learning songs when you're away from computer. Get the app
WARNING: You are trying to view
                                    content from Ultimate-Guitar.com
                                    in an unauthorized application,
                                    which is prohibited.

                                    Please use an official Ultimate
                                    Guitar Tabs application for iPhone,
                                    iPad or Android to access legitimate
                                    chords, guitar, bass, and drum tabs
                                    from Ultimate-Guitar.com database.

                                    Type "ultimate guitar tabs" in Apple
                                    App Store's or Android Market's
                                    search to find the application.
Green Day 1039/smoothed out slappy hours
Tabbed by Liam
Email: guitar_rocker_47@hotmail.com
Tuning for most of the album is half a step down unless otherwise stated

Here we go, another green day album tab. 
And Whats with the other guys tab - it has the right chords on most of the
songs but where is the order and it is also missing mute marks and sometimes
it doesn't have the right number of times you play a certain chord, But still
average. Basically I just tabbing to add to my Green Day album tab collection
of U.G but here is a superb tab if you don't agree, leave a comment.
Also by the way this is a album tab for rhythm guitar (not lead) this differs
from my other tabs because I tab them as rhythm/lead. Note: if you insert this
tab into Microsoft word and it looks weird where the tab overlaps it's self just
go on file, page set-up then click on the margins tab and adjust to this:
top = 0.32cm, bottom = 0.51cm,Left and right = 3cm. The tab should now look in
proportion, if it doesn't or you don't understand leave a comment.

At The Library
Don't Leave Me
I Was There
Disappearing Boy
Green Day
Going To Pasalacqua
16
Road To Acceptance
Rest
The Judge's Daughter
Paper Lanterns
Why Do You Want Him?
409 In Your Coffeemaker
Knowledge
1,000 Hours
Dry Ice
Only Of You
The One I Want
        19. I Want To Be Alone

----------------------------------------------------------------------------
Green Day At the library
-----------------------------------------------------------------------------

Intro part 1
e|------------------------|------------------------|-------------------------|
B|------------------------|------------------------|-------------------------|
G|------------------------|------------------------|-------------------------|
D|------------------------|------------------------|-------------------------|
A|-9--9--9--0--10-10-10-0-|-9--9--9--0--10-10-10-0-|-9--9--9--0--10-10-10--0-|
E|10-10-10------8--8--8---|10-10-10------8--8--8---|10-10-10------8--8--8----|
PM***************************************************************************

e|---------|
B|---------|
G|---------|
D|-9-9-9-9-|
A|-9-9-9-9-|
E|-7-7-7-7-|

e|------------------------|------------------------|-------------------------|
B|------------------------|------------------------|-------------------------|
G|------------------------|------------------------|-------------------------|
D|------------------------|------------------------|-------------------------|
A|-9--9--9--0--10-10-10-0-|-9--9--9--0--10-10-10-0-|-9--9--9--0--10-10-10--0-|
E|10-10-10------8--8--8---|10-10-10------8--8--8---|10-10-10------8--8--8----|
PM***************************************************************************

e|---------------|
B|---------------|
G|---------------|
D|-9-9-9-9--0----|
A|-9-9-9-9--0----|
E|-7-7-7-7----0--|

Intro part 2
e|------------------|-------------------|------------------|------------------|
B|------------------|-------------------|------------------|------------------|
G|-------0--------0-|-----0-0---------0-|-------0--------0-|-----0-0---------0|
D|-----0--------4---|----------0-0--3---|-----0--------4---|----------0-0--3--| x2
A|----------2-2-----|-3-3---------------|----------2-2-----|-3-3--------------|
E|3-3---------------|-------------------|3-3---------------|------------------|

(Harmonics)
e|-2----7--2--5--2--7--------------2---5---2-2----|
B|---3-----------------2--1--4--1-----------------|
G|------------------------------------------------|
D|------------------------------------------------|
A|------------------------------------------------|
E|------------------------------------------------|

Verse
e|------------------|-------------------|------------------|------------------|
B|------------------|-------------------|------------------|------------------|
G|-------0--------0-|-----0-0---------0-|-------0--------0-|-----0-0---------0|
D|-----0--------4---|----------0-0--3---|-----0--------4---|----------0-0--3--|
A|----------2-2-----|-3-3---------------|----------2-2-----|-3-3--------------|
E|3-3---------------|-------------------|3-3---------------|------------------|

Chorus
e|--------------------------------------------------------------------------|
B|--------------------------------------------------------------------------|
G|--------------7-7-7-7-7-7-7-7-------------7-7-7-7-7-7-7-7-----------------|
D|-2-2-2-2-2-2--7-7-7-7-7-7-7-7--2-2-2-2-2--7-7-7-7-7-7-7-7--2-2-2-2-2-2----|
A|-2-2-2-2-2-2--5-5-5-5-5-5-5-5--2-2-2-2-2--5-5-5-5-5-5-5-5--2-2-2-2-2-2----|
E|-0-0-0-0-0-0-------------------0-0-0-0-0-------------------0-0-0-0-0-0----|

e|---------------------------------------------------------------------------|
B|---------------------------------------------------------------------------|
G|-7-7-7-7-7-7-7-7--5-5-5-5-5-5-5-5------------------------------------------|
D|-7-7-7-7-7-7-7-7--5-5-5-5-5-5-5-5------------------------------------------|
A|-5-5-5-5-5-5-5-5--3-3-3-3-3-3-3-3------------------------------------------|
E|---------------------------------------------------------------------------|

Order

Intro part 1
Intro part 2
Verse x5
Chorus
Verse x5
Chorus
Verse x4
(Scratch e,a,d strings a few times)
Verse x8
Intro part 1 (just top line)
Now play the harmonics bit

Lyrics

(Verse)
Hey they're looking at me 
Ah, tell me, what do you see? 
But you quickly turn your head away
I try to find the words I could use                   
Don't have the courage to come up to you
My chance is looking a bit grey.

(Chorus)
Starting across the room, are you leaving soon
I just need a little time

(Verse)
What is it that drives me mad?
Girls like you that I never had.
What is it about you that I adore?
What makes me feel so much pain?
What makes me go so insane?
What is it about you that I adore?   

(Chorus)
Starting across the room, are you leaving soon
I just need a little time.
(Time what time?)

(Scratching bit)
 Why did have to leave so soon?
 Why did you have to walk away?

(Chorus 2)
OH, well it happened again. 
She walked away with her boyfriend
Maybe well meet again some day
Maybe well meet again some day, someday, yeah.

  

---------------------------------------------------------------------------
Green Day Don't leave me
---------------------------------------------------------------------------

Intro part 1
e|---------------------------------|------------------------------|
B|---------------------------------|------------------------------|
G|----------------7-7-7------------|-------------7-7-7------------|
D|-x-x--9-9--7-7--7-7-7--9-9-9-9---|---9-9--7-7--7-7-7--9-9-9-9---|
A|-x-x--9-9--7-7--5-5-5--9-9-9-9---|---9-9--7-7--5-5-5--9-9-9-9---|
E|-x-x--7-7--5-5---------7-7-7-7---|---7-7--5-5---------7-7-7-7---|

Intro part 2
e|------------------------------------------------------------------|
B|------------------------------------------------------------------|
G|-----------7-7-7----------------------7---------------------------|
D|-9-9--7-7--7-7-7--9-9-9-9---9-9--7-7--7---------------------------|
A|-9-9--7-7--5-5-5--9-9-9-9---9-9--7-7--5---------------------------|
E|-7-7--5-5---------7-7-7-7---7-7--5-5------------------------------|

Verse
e|---------------------------------|--------------------------------|
B|---------------------------------|--------------------------------|
G|-------------------7-7-7-7-7-7---|-------------------7-7-7-7-7-7--|
D|-9-9-9-9--7-7-7-7--7-7-7-7-7-7---|-9-9-9-9--7-7-7-7--7-7-7-7-7-7--|
A|-9-9-9-9--7-7-7-7--5-5-5-5-5-5---|-9-9-9-9--7-7-7-7--5-5-5-5-5-5--|
E|-7-7-7-7--5-5-5-5----------------|-7-7-7-7--5-5-5-5---------------|
PM *****    *****    *****   *       *****    *****    *****   *

e|----------------------------|------------------------------------|
B|----------------------------|------------------------------------|
G|------------7-7-7-----------|-----------7------------------------|
D|--9-9--7-7--7-7-7--9-9-9-9--|-9-9--7-7--7------------------------|
A|--9-9--7-7--5-5-5--9-9-9-9--|-9-9--7-7--5------------------------|
E|--7-7--5-5---------7-7-7-7--|-7-7--5-5---------------------------|
PM  ************************

Pre Chorus
e|----------------------------|------------------------------|
B|----------------------------|------------------------------|
G|-----------7-7-7------------|-------------7-7-7------------|
D|-9-9--7-7--7-7-7--9-9-9-9---|---9-9--7-7--7-7-7--9-9-9-9---|
A|-9-9--7-7--5-5-5--9-9-9-9---|---9-9--7-7--5-5-5--9-9-9-9---|
E|-7-7--5-5---------7-7-7-7---|---7-7--5-5---------7-7-7-7---|

Chorus
e|-----------------------------------------------------------------|
B|-----------------------------------------------------------------|
G|-----------------------------------------------------------------|
D|-7-7-7-7-7-7-7-7-7-7-7-7--4-4-4-4--7-7-7-7-7-7-------------------|
A|-7-7-7-7-7-7-7-7-7-7-7-7--4-4-4-4--7-7-7-7-7-7-------------------|
E|-5-5-5-5-5-5-5-5-5-5-5-5--2-2-2-2--5-5-5-5-5-5-------------------|
 
Interlude (rhythm guitar plays this while lead is playing a note solo)
e|-------------|------------------------------------------------------|
B|-------------|------------------------------------------------------|
G|-------------|------------------------------------------------------|
D|-9--7--9--7--|-9-9-9-9-9-9-9-9--9--9-9-9-9-9-9-9-9--7-7-7-7-7-7-7-7-|
A|-9--7--9--7--|-9-9-9-9-9-9-9-9—-9--9-9-9-9-9-9-9-9--7-7-7-7-7-7-7-7-|
E|-7--5--7--5--|-7-7-7-7-7-7-7-7--7--7-7-7-7-7-7-7-7--5-5-5-5-5-5-5-5-|
PM               ****************************************************

e|--------------------------------------------------------------------|
B|--------------------------------------------------------------------|
G|--------------------------------------------------------------------|
D|-7--7-7-7-7-7-7-7-7--9-9-9-9-9-9-9-9--9--9-9-9-9-9-9-9-9---9-9-9-9--|
A|-7--7-7-7-7-7-7-7-7--9-9-9-9-9-9-9-9--9--9-9-9-9-9-9-9-9---9-9-9-9--|
E|-5--5-5-5-5-5-5-5-5--7-7-7-7-7-7-7-7--7--7-7-7-7-7-7-7-7---7-7-7-7--|
PM *******************************************************

e|--------------------------------------------------------------------|
B|--------------------------------------------------------------------|
G|--------------------------------------------------------------------|
D|-9-9-9-9--9--9-9-9-9-9-9-9-9----------------------------------------|
A|-9-9-9-9--9--9-9-9-9-9-9-9-9----------------------------------------|
E|-7-7-7-7--7--7-7-7-7-7-7-7-7----------------------------------------|

Order

Intro part 1
Intro part 2
Verse
Pre Chorus x2
Chorus x2
Intro part 2
Verse
Pre Chorus x2
Chorus x4
Pre Chorus x2
Interlude
Intro part 2
Pre Chorus
Intro part 2
Pre Chorus
Chorus x4
Intro part 2

Lyrics

(Verse)
I walk for miles, until I find you
Are you saying you wanna leave me? 
But you can't choose

(Pre Chorus)
Ive gone through pain
Everyday and night
I feel my mind is going insane
Simply I can't fight

(Chorus)
Don't leave me
Don't leave me

(Verse)
A blank expression
Is covering your face
Im looking for directions
Out of this place

(Pre Chorus)
I start to wonder
If you'll come back
Ive got a race running after thunder
I can't hold back

(Chorus)
Don't leave me
Don't leave me
Don't leave me
Don't leave me  

(After the interlude)
I walk for miles, until I find you
Are you saying you wanna leave me? 
But you can't choose

(Pre Chorus)
Ive gone through pain
Everyday and night
I feel my mind is going insane
Simply I can't fight

(Chorus)
Don't leave me
Don't leave me
Don't leave me
Don't leave me


----------------------------------------------------------------------------
Green Day I was there
----------------------------------------------------------------------------

Intro (play hard down strum stabs here)
e|--------------------------------------------------------------------|
B|-10-10-10-10-10-10-10-10---10-10-10-10-10-10-10-10------------------|
G|-10-10-10-10-10-10-10-10---10-10-10-10-10-10-10-10------------------|
D|-10-10-10-10-10-10-10-10---10-10-10-10-10-10-10-10------------------|
A|--8--8--8--8--8--8--8--8----9--9--9--9--9--9--9--9------------------|
E|--------------------------------------------------------------------|

Main Riff
e|------------|-------------|------------|------------|
B|------------|-------------|------------|------------|
G|---0-5-0----|----0-5-0----|------------|------------|
D|------------|-------------|-----8------|-----8------|
A|-3-------3--|--3-------3--|---8---8----|---8---8----|
E|------------|-------------|-6-------6--|-6-------6--|

Chorus
e|-----------------------------------------------------------------------|
B|-----------------------------------------------------------------------|
G|----------5-5-5-5-5-5-5-----------5-5-5-5-5-5-5-5----------------------|
D|-3-3-3-3--5-5-5-5-5-5-5--3-3-3-3--5-5-5-5-5-5-5-5--8-8-8-8-8-8-8-8-8-8-|
A|-3-3-3-3--3-3-3-3-3-3-3--3-3-3-3--3-3-3-3-3-3-3-3--8-8-8-8-8-8-8-8-8-8-|
E|-1-1-1-1-----------------1-1-1-1-------------------6-6-6-6-6-6-6-6-6-6-|

e|-----------------------------------------------------------------------|
B|-----------------------------------------------------------------------|
G|-5-5-5-5-5-5-5-5-5-5---------------------------------------------------|
D|-5-5-5-5-5-5-5-5-5-5---------------------------------------------------|
A|-3-3-3-3-3-3-3-3-3-3---------------------------------------------------|
E|-----------------------------------------------------------------------|

Outro
e|-----------------------------------------------------------------------|
B|-----------------------------------------------------------------------|
G|----------5-----------------------5--------------5-5-5-5-5-5-5-5-5-5---|
D|-3-3-3-3--5-(bass riff)--3-3-3-3--5-(bass riff)--5-5-5-5-5-5-5-5-5-5---|
A|-3-3-3-3--3--------------3-3-3-3--3--------------3-3-3-3-3-3-3-3-3-3---|
E|-1-1-1-1-----------------1-1-1-1---------------------------------------|

Order

Intro x4
Main riff x8
Chorus x2
Main Riff x6
Chorus x2
(Lead guitar solo - not tabbed)
Main riff x4
Chorus x2
Outro x2 (ring out last chord)


Lyrics

(Main riff)
Looking back upon my life 
And the places that I've been
(?????) Of love
I try to remember when

Faded memories on the walls
And faces I've forgotten
But each one is a memory
I look back on so often

(Chorus)
I look into the past and I wanna make it last
I was there, I was there
I look into the past and I wanna make it last
I was there, I was there

(Main Riff)
Looking back what ive done
There's lots more to live
As I look back on the world
I question what I can give

But I don't let it get me down
Oh it causes me too much sorrow
But if there's a doubt of who I am 
I always have tomorrow

(Chorus)
I look into the past and I wanna make it last
I was there, I was there
I look into the past and I wanna make it last
I was there, I was there

(Solo)
Looking back on my life - my life
Faded memories on my wall - on the wall
Looking now at who I am - who am I
I don't let it get me down - I don't let it get me down

(Main riff)
Looking back upon my life 
And the places that I've been
(?????) Of love
I try to remember when

But I don't let it get me down
Oh it causes me too much sorrow
But if there's a doubt of who I am 
I always have tomorrow

(Chorus)
I look into the past and I wanna make it last
I was there, I was there
I look into the past and I wanna make it last
I was there, I was there


---------------------------------------------------------------------------
Green Day Disappearing boy
---------------------------------------------------------------------------

Intro (with some weird effects it think)
e|------------------------------------------------------------------|
B|------------------------------------------------------------------|
G|----------------------------------------7-7-7-7-7-7--7b6----------|
D|-7-7-7-7-7-7--4-4-4-4-4-4--5-5-5-5-5-5--7-7-7-7-7-7---------------|
A|-7-7-7-7-7-7--4-4-4-4-4-4--5-5-5-5-5-5--5-5-5-5-5-5---------------|
E|-5-5-5-5-5-5--2-2-2-2-2-2--3-3-3-3-3-3----------------------------|
PM *****   *    *****   *    *****   *    *****   *

e|------------------------------------------------------------------|
B|------------------------------------------------------------------|
G|----------------------------------------------------7-7-7-7-7-7-7-|
D|-7-7-7-7-7-7-7-7--4-4-4-4-4-4-4-4--5-5-5-5-5-5-5-5--7-7-7-7-7-7-7-|
A|-7-7-7-7-7-7-7-7--4-4-4-4-4-4-4-4--5-5-5-5-5-5-5-5--5-5-5-5-5-5-5-|
E|-5-5-5-5-5-5-5-5--2-2-2-2-2-2-2-2--3-3-3-3-3-3-3-3----------------|
PM *****************************************************************

Verse
e|------------------------------------------------------------------|
B|------------------------------------------------------------------|
G|------------------------------------7-7-7-7-7-7-------------------|
D|-7-7-7-7-7-7--4-4-4-4-4-4--5-5-5-5--7-7-7-7-7-7-------------------|
A|-7-7-7-7-7-7--4-4-4-4-4-4--5-5-5-5--5-5-5-5-5-5-------------------|
E|-5-5-5-5-5-5--2-2-2-2-2-2--3-3-3-3--------------------------------|

Chorus
e|------------------------------------------------------------------|
B|------------------------------------------------------------------|
G|------------------------------------------------------------------|
D|-9-9-9-9--10-10-10-10--5-5-5-5-5-5-5-5-5-5-5-5--------------------|
A|-9-9-9-9--10-10-10-10--5-5-5-5-5-5-5-5-5-5-5-5--------------------|
E|-7-7-7-7---8--8--8--8--3-3-3-3-3-3-3-3-3-3-3-3--------------------|

Bridge
e|------------------------------------------------------------------|
B|------------------------------------------------------------------|
G|---7h8-------5h6-------5h6----------------------------------------|
D|-------7---------5---------5----5h6-------------------------------|
A|-5---------3---------3--------------5-----------------------------|
E|------------------------------3-----------------------------------|

Order

Intro
Verse x4
Chorus x4
Verse x6
Chorus x4
Bridge x4
Verse x4
Chorus x4 (ring out last chord)


Lyrics

(Verse)
Now you see me, now you don't
Don't ask me where Im at
Cos' im a million miles away
Treat it like a forbidden heel
Say my thoughts are not for real
Or you want see me again

(Chorus)
Am I here or am I there?
Or am I standing on the stairs
Am I admiring with my toys
Am I a disappearing boy

(Verse)
When I walk in crowded rooms
I feel as if it is my tomb
I know that I don't belong
In the room I see her
I see here and she's with him
I turn around and them im gone

(Chorus)
Don't call me up cos' im not home
My whereabouts are unknown
I have (?????) in my own time
I am a disappearing boy

(Bridge)
I have my doubts where I belong
It's something to think about

(Verse - no lyrics)

(Chorus)
Don't call me up cos' im not home
My whereabouts are unknown
I have (?????) in my own time
I am a disappearing boy


---------------------------------------------------------------------------
Green Day Green Day 
---------------------------------------------------------------------------
Intro
e|-------------------------------------------------------------------|
B|-------------------------------------------------------------------|
G|----9--7-----------------------------------------------------------|
D|-9--9--7--9~~------------------------------------------------------|
A|-9--7--5--9~~------------------------------------------------------|
E|-7--------7~~------------------------------------------------------|

Verse part 1
e|-------------------------------------------------------------------|
B|-------------------------------------------------------------------|
G|-------------9-9-9-9-9-9-------------------------------------------|
D|-6-6-6-6--x--9-9-9-9-9-9--9-9-9-9-9-9-9-9-9-9----------------------|
A|-6-6-6-6--x--7-7-7-7-7-7--9-9-9-9-9-9-9-9-9-9----------------------|
E|-4-4-4-4--x---------------7-7-7-7-7-7-7-7-7-7----------------------|

Verse part 2
e|-------------------------------------------------------------------|
B|-------------------------------------------------------------------|
G|-9-9-9-9-7-7-7-7-6-6-6-6-------------------------------------------|
D|-9-9-9-9-7-7-7-7-6-6-6-6--9-9-9-9--4-4-4-4-4-4-4-4-2---------------|
A|-7-7-7-7-5-5-5-5-4-4-4-4--9-9-9-9--4-4-4-4-4-4-4-4-2—(bass riff)---|
E|--------------------------7-7-7-7--2-2-2-2-2-2-2-2-0---------------|

Chorus
e|-------------------------------------------------------------------|
B|-------------------------------------------------------------------|
G|-------------------------------------------------------------------|
D|-6-6-6-6--2-2-2-2--9-9-9-9-9-9-9-9---------------------------------|
A|-6-6-6-6--2-2-2-2--9-9-9-9-9-9-9-9---------------------------------|
E|-4-4-4-4--0-0-0-0--7-7-7-7-7-7-7-7---------------------------------|


Order

Intro
Verse part 1 x3
Verse part 2 x2
Chorus x4
Verse part 2 x3
Verse part 1 x4
Verse part 2 x2
(Pause while lead plays solo)
Verse part 2 x2
Verse part 1 x4
Verse part 2 


---------------------------------------------------------------------------------
Green Day Going to Pasalacqua 
---------------------------------------------------------------------------------
1st Verse
e|---------------------------------------------------------------------------|
B|----------2-2-2-2-2--------------------------------------------------------|
G|----------2-2-2-2-2--------------------------------------------------------|
D|-2-2-2-2--0-0-0-0-0--7-7-7-7-7-7-7-7-7-7--2-2-2-2-2-2-2-2-2-2-2-2----------|
A|-2-2-2-2-------------7-7-7-7-7-7-7-7-7-7--2-2-2-2-2-2-2-2-2-2-2-2----------|
E|-0-0-0-0-------------5-5-5-5-5-5-5-5-5-5--0-0-0-0-0-0-0-0-0-0-0-0----------|

Chorus part 1
e|---------------------------------------------------------------------------|
B|-----------------------------------------2-2-2-2-2-2-2-2-------------------|
G|-7-7-7-7-7-------------------------------2-2-2-2-2-2-2-2-------------------|
D|-7-7-7-7-7--7-7-7-7-2-2-2-2-2-2-2-2-2-2--0-0-0-0-0-0-0-0--7-7-7-7-7-7-7-7--|
A|-5-5-5-5-5--7-7-7-7-2-2-2-2-2-2-2-2-2-2-------------------7-7-7-7-7-7-7-7--|
E|------------5-5-5-5-0-0-0-0-0-0-0-0-0-0-------------------5-5-5-5-5-5-5-5--|

Chorus part 2
e|---------------------------------------------------------------------------|
B|-----------------------------------------2-2-2-----------------------------|
G|-7-7-7-7-7-------------------------------2-2-2--x-x-x-x-x-x-x-x-x-x--------|
D|-7-7-7-7-7--7-7-7-7-2-2-2-2-2-2-2-2-2-2--0-0-0--x-x-x-x-x-x-x-x-x-x--------|
A|-5-5-5-5-5--7-7-7-7-2-2-2-2-2-2-2-2-2-2---------x-x-x-x-x-x-x-x-x-x--------|
E|------------5-5-5-5-0-0-0-0-0-0-0-0-0-0---------x-x-x-x-x-x-x-x-x-x--------|

2nd Verse
e|---------------------------------------------------------------------------|
B|----------------------------------------------------------2-2-2-2-2-2-2-2--|
G|----------------------------------------------------------2-2-2-2-2-2-2-2--|
D|-7-7-7-7-7-7-7-7-7--2-2-2-2-2-2-2-2-2-2--4-4-4-4-4-4-4-4--0-0-0-0-0-0-0-0--|
A|-7-7-7-7-7-7-7-7-7--2-2-2-2-2-2-2-2-2-2--4-4-4-4-4-4-4-4-------------------|
E|-5-5-5-5-5-5-5-5-5--0-0-0-0-0-0-0-0-0-0--2-2-2-2-2-2-2-2-------------------|

Fill 1
e|---------------------------------------------------------------------------|
B|---------------------------------------------------------------------------|
G|---------------------------------------------------------------------------|
D|-7-7-7----7-7-7-7-7-7-7-7-7-7-7-7-7-7-7-7-7-7-7-7-7-7-7-7-7-7-7-7-7-7-7-7--|
A|-7-7-7----7-7-7-7-7-7-7-7-7-7-7-7-7-7-7-7-7-7-7-7-7-7-7-7-7-7-7-7-7-7-7-7--|
E|-5-5-5----5-5-5-5-5-5-5-5-5-5-5-5-5-5-5-5-5-5-5-5-5-5-5-5-5-5-5-5-5-5-5-5--|
PM          ***************************************************************

Fill 2
e|---------------------------------------------------------------------------|
B|---------------------------------------------------------------------------|
G|---------------------------------------------------------------------------|
D|-2-2-2-2-2-2-2-2-2-2-2-2-2-2-2-2-2-2-2-2-2-2-2-2-2-------------------------|
A|-2-2-2-2-2-2-2-2-2-2-2-2-2-2-2-2-2-2-2-2-2-2-2-2-2-------------------------|
E|-0-0-0-0-0-0-0-0-0-0-0-0-0-0-0-0-0-0-0-0-0-0-0-0-0-------------------------|
PM *************************************************

Order

Verse x2
Chorus part 1
Chorus part 2
2nd Verse x2
Fill 1
1st verse
Fill 2
Chorus part 1 x2
Chorus part 2
2nd Verse x2
Fill 1 (this is played under a lead guitar solo, so play it a lot of times)
Chorus part 1
Chorus part 2
2nd Verse x3 (ring out last chord, and then play it again)


---------------------------------------------------------------------------------
Green Day 16 
---------------------------------------------------------------------------------
Intro
e|--------------------------------|---------------------------------|
B|--------------------------------|---------------------------------|
G|------------------------2-2-2---|----------------------2-2-2------|
D|-9-9--9--7-7--7---2--2--2-2-2---|-9-9--9--7-7--7--2-2--2-2-2------|
A|-9-9--9--7-7--7---2--2--0-0-0---|-9-9--9--7-7--7--2-2--0-0-0------|
E|-7-7--7--5-5--5---0--0----------|-7-7--7--5-5--5--0-0-------------|
PM ***     ***      *

Intro part 2
e|--------------------------------|---------------------------------|
B|--------------------------------|---------------------------------|
G|------------------------2-2-2---|----------------------2-2-2------|
D|-9-9--9--7-7--7---2--2--2-2-2---|-9-9--9--7-7--7--2-2--2-2-2------|
A|-9-9--9--7-7--7---2--2--0-0-0---|-9-9--9--7-7--7--2-2--0-0-0------|
E|-7-7--7--5-5--5---0--0----------|-7-7--7--5-5--5--0-0-------------|
PM         ***      *

Verse
e|--------------------------------|---------------------------------|
B|--------------------------------|---------------------------------|
G|------------------------2-2-2---|----------------------2-2-2------|
D|-9-9--9--7-7--7---2--2--2-2-2---|-9-9--9--7-7--7--2-2--2-2-2------|
A|-9-9--9--7-7--7---2--2--0-0-0---|-9-9--9--7-7--7--2-2--0-0-0------|
E|-7-7--7--5-5--5---0--0----------|-7-7--7--5-5--5--0-0-------------|
PM ***     ***      *               ***     ***     *

Chorus
e|--------------------------------|---------------------------------|
B|--------------------------------|---------------------------------|
G|5-5-5-5-7-7-7-7-----------------|-5-5-5-5-7-7-7-7-----------------|
D|5-5-5-5-7-7-7-7--9-9-9-9-9-9-9-9|-5-5-5-5-7-7-7-7--9-9-9-9-9-9-9-9|
A|3-3-3-3-5-5-5-5--9-9-9-9-9-9-9-9|-3-3-3-3-5-5-5-5--9-9-9-9-9-9-9-9|
E|-----------------7-7-7-7-7-7-7-7|------------------7-7-7-7-7-7-7-7|

Bridge (rhythm plays this during the sweet bass bit and also while lead is 
        Playing a solo)
e|------------------------------------------------------------------|
B|------------------------------------------------------------------|
G|------------------------------------------------------------------|
D|--9--9-9--9-9--9-9---9-9--9-9--9-9--9-----------------------------|
A|--9--9-9--9-9--9-9---9-9--9-9--9-9--9-----------------------------|
E|--7--7-7--7-7--7-7---7-7--7-7--7-7--7-----------------------------|

Outro
e|--------------------------------|
B|--------------------------------|
G|------------------------2-2-2~--|
D|-9-9--9--7-7--7---2--2--2-2-2~--|
A|-9-9--9--7-7--7---2--2--0-0-0~--|
E|-7-7--7--5-5--5---0--0----------|
PM ***     ***      *


Order

Intro
Intro part 2
Verse x4
Chorus x2
Intro part 2
Verse x4
Chorus x2
Bridge x6
Chorus x2
Verse x4
Chorus x3
Outro

---------------------------------------------------------------------------------
Green Day Road to acceptance
---------------------------------------------------------------------------------
For this song I have just tabbed all the riffs but haven't put an order cos I
couldn't work it out, if any one can work it out add it to the comments thingy,
and I will update this tab with it on it.

Intro - played by lead guitar 

Riff 1
e|--------------------------------|--------------------------------|
B|-2-2-2-2--3-3-3-3--2-2--3-3-3-3-|-2-2-2-2--3-3-3-3--2-2--3-3-3-3-|
G|-x-x-x-x--x-x-x-x--x-x--x-x-x-x-|-x-x-x-x--x-x-x-x--x-x--x-x-x-x-|
D|-4-4-4-4--5-5-5-5--4-4--5-5-5-5-|-4-4-4-4--5-5-5-5--4-4--5-5-5-5-|
A|--------------------------------|--------------------------------|
E|--------------------------------|--------------------------------|

Riff 2
e|-----------------------------------------------------------------|
B|-----------------------------------------------2-2---------2-2---|
G|-----------------------------------------------2-2--2------2-2--2|
D|-9-9-9-9-9-9-9-9-9-9--7-7-7-7-7-7-7-7-7-7--4-4-0-0--2--4-4-0-0--2|
A|-9-9-9-9-9-9-9-9-9-9--7-7-7-7-7-7-7-7-7-7--4-4------0--4-4------0|
E|-7-7-7-7-7-7-7-7-7-7--5-5-5-5-5-5-5-5-5-5--2-2---------2-2-------|

e|-----------------------------------------------------------------|
B|-----------------------------------------------------------------|
G|-7-7-7-7-7-7-7-7--5-5-5-5-5-5-5-5------7-7--------7-7------------|
D|-7-7-7-7-7-7-7-7--5-5-5-5-5-5-5-5--7-7-7-7-7--7-7-7-7-7----------|
A|-5-5-5-5-5-5-5-5--3-3-3-3-3-3-3-3--7-7-5-5-7--7-7-5-5-7----------|
E|-----------------------------------5-5-----5--5-5-----5----------|

Riff 3
e|-----------------------------------------------------------------|
B|-----------------------------------------------------------------|
G|-7-7-7-7-7-7-7-7-7-7--5-5-5-5-5-5-5-5-5-5------------------------|
D|-7-7-7-7-7-7-7-7-7-7--5-5-5-5-5-5-5-5-5-5--5-5-5-5-5-5-5-5-5-5---|
A|-5-5-5-5-5-5-5-5-5-5--3-3-3-3-3-3-3-3-3-3--5-5-5-5-5-5-5-5-5-5---|
E|-------------------------------------------3-3-3-3-3-3-3-3-3-3---|

e|-----------------------------------------------------------------|
B|-----------------------------------------------------------------|
G|-5-5-5-5-5-5-5-5-5-5-5-5-----------------------------------------|
D|-5-5-5-5-5-5-5-5-5-5-5-5-----------------------------------------|
A|-3-3-3-3-3-3-3-3-3-3-3-3-----------------------------------------|
E|-----------------------------------------------------------------|

--------------------------------------------------------------------------
Green Day Rest
--------------------------------------------------------------------------
On this song lead plays a variety of arpeggios, but rhythm guitar plays this
On the root note of each arpeggio. (So timing isn't tabbed here at all - 
Im just tabbing what chord you play) this also means no order sorry If this 
Is confusing leave a comment

Verse
e|-----------------------------------------------------------------|
B|-----------------------------------------------------------------|
G|-----------------------------------------------------------------|
D|---5-----5--3-----3--5-----5--3-----3----------------------------|
A|---5-----5--3-----3--5-----5--3-----3----------------------------|
E|---3-----3--1-----1--3-----3--1-----1----------------------------|

Chorus
e|-----------------------------------------------------------------|
B|-----------------------------------------------------------------|
G|-------------------------------------5----5--7-----7-------------|
D|---8-----8--7-----7--8----8--7----7--5----5--7-----7-------------|
A|---8-----8--7-----7--8----8--7----7--3----3--5-----5-------------|
E|---6-----6--5-----5--6----6--5----5------------------------------|


--------------------------------------------------------------------------
Green Day The Judge's daughter
--------------------------------------------------------------------------
Verse
e|-----------------------------------------------------------------|
B|-----------------------------------------------------------------|
G|---------------------5-5-5-5-------------------------------------|
D|-5-5-5-5--3-3-3-3-3--5-5-5-5--5-5-5-5-5-5-5-5--------------------|
A|-5-5-5-5--3-3-3-3-3--3-3-3-3--5-5-5-5-5-5-5-5--------------------|
E|-3-3-3-3--1-1-1-1-1-----------3-3-3-3-3-3-3-3--------------------|

Chorus
e|-----------------------------------------------------------------|
B|-----------------------------------------------------------------|
G|-5-5-5-5--7-7-7-7------------------------------------------------|
D|-5-5-5-5--7-7-7-7--5-5-3-3-5-5-5-5-------------------------------|
A|-3-3-3-3--5-5-5-5--5-5-3-3-5-5-5-5-------------------------------|
E|-------------------3-3-1-1-3-3-3-3-------------------------------|

Chorus part 2
e|------------------------------------------------------------------|
B|------------------------------------------------------------------|
G|-5-5-5-5--7-7-7-7--5-5-5-5--7-7-7-7-------------------------------|
D|-5-5-5-5--7-7-7-7--5-5-5-5--7-7-7-7-5-5--3-5-5-5-5--5-5--3-5-5-5-5|
A|-3-3-3-3--5-5-5-5--3-3-3-3--5-5-5-5-5-5--3-5-5-5-5--5-5--3-5-5-5-5|
E|------------------------------------3-3--1-3-3-3-3--3-3--1-3-3-3-3|

Bridge
e|--------------|-------------|-------------------------------------|
B|--------------|-------------|-------------------------------------|
G|--------------|-------------|-------------------------------------|
D|-5-5-x-3-3-5--|-5-5-x-3-3-5-|-5-5-x-3-3-5-------------------------|
A|-5-5-x-3-3-5--|-5-5-x-3-3-5-|-5-5-x-3-3-5-------------------------|
E|-3-3-x-1-1-3--|-3-3-x-1-1-3-|-3-3-x-1-1-3-------------------------|


Order

Verse x4
Chorus x2
Chorus part 2
Verse x6
Chorus x2
Chorus part 2
Bridge  
Verse x4 (while lead guitar plays solo)
Chorus x2
Chorus part 2
Bridge

--------------------------------------------------------------------------
Green Day paper lanterns
--------------------------------------------------------------------------
Sorry I was trying to work this one out and all I got was the intro and 
that doesn't right so I gave up sorry!. 

Intro
e|--------------------------------------------------------------------|
B|--------------------------------------------------------------------|
G|-----------------5-5------------------------------------------------|
D|-7--7-7--5--5-5--5-5--7--7-7----------------------------------------|
A|-7--7-7--5--5-5--3-3--7--7-7----------------------------------------|
E|-5--5-5--3--3-3-------5--5-5----------------------------------------|

        
--------------------------------------------------------------------------
Green Day Why do you want him?
--------------------------------------------------------------------------
I believe, the first song Billie Joe wrote and what a song! Simple power 
Chord riff, and a nice solo (not tabbed)

Intro
e|--------------------------------------------------------------------|
B|--------------------------------------------------------------------|
G|-8-8-8-8------------------------------------------------------------|
D|-8-8-8-8--10-10-10-10-10-10--6-6-6-6--8-8-8-8-8-8-------------------|
A|-6-6-6-6--10-10-10-10-10-10--6-6-6-6--8-8-8-8-8-8-------------------|
E|-----------8--8--8--8--8--8--4-4-4-4--6-6-6-6-6-6-------------------|

Verse
e|--------------------------------------------------------------------|
B|-4-4-4-4------------------------------------------------------------|
G|-4-4-4-4--2-2-2-2-2-2-----------------------------------------------|
D|-2-2-2-2--2-2-2-2-2-2--4-4-4-4--5-5-5-5-5-5-------------------------|
A|----------0-0-0-0-0-0--4-4-4-4--5-5-5-5-5-5-------------------------|
E|-----------------------2-2-2-2--3-3-3-3-3-3-------------------------|

Bridge
e|-------------|-------------|-------------|--------------------------|
B|-------------|-------------|-------------|--------------------------|
G|-------------|-------------|-------------|--------------------------|
D|-5-7--9--7-5-|-5-7--9--7-5-|-5-7--9--7-5-|-5-7--9--7-5--------------|
A|-5-7--9--7-5-|-5-7--9--7-5-|-5-7--9--7-5-|-5-7--9--7-5--------------|
E|-3-5--7--5-3-|-3-5--7--5-3-|-3-5--7--5-3-|-3-5--7--5-3--------------|

Order

Intro x2
Verse x6
Intro x2
Verse x4
Intro x4
Bridge
Verse x4 (while lead guitar plays a solo)
Intro x4


--------------------------------------------------------------------------
Green Day 409 in your coffee maker
--------------------------------------------------------------------------
I heard this song was written about Billie putting 409 in his teacher 
Coffee. Im going to sound stupid now but what is 409? You see im English 
And I think 409 is an American product. If you know leave a comment, thanks!

Intro
e|---------------|---------------|---------------|---------------------|
B|---------------|---------------|---------------|---------------------|
G|-5-5-x---------|-5-5-x---------|-5-5-x---------|-5-5-x---------------|
D|-5-5-x-5-5-6-6-|-5-5-x-5-5-6-6-|-5-5-x-5-5-6-6-|-5-5-x-5-5-6-6-------|
A|-3-3-x-5-5-6-6-|-3-3-x-5-5-6-6-|-3-3-x-5-5-6-6-|-3-3-x-5-5-6-6-------|
E|-------3-3-4-4-|-------3-3-4-4-|-------3-3-4-4-|-------3-3-4-4-------|

Verse
e|--------------------------------------------------------------------|
B|--------------------------------------------------------------------|
G|--------------------------------------------------------------------|
D|-6-6-6-6--4-4-4-4-4--6-6-6-6--4-4-4-4-4-----------------------------|
A|-6-6-6-6--4-4-4-4-4--6-6-6-6--4-4-4-4-4-----------------------------|
E|-4-4-4-4--2-2-2-2-2--4-4-4-4--2-2-2-2-2-----------------------------|

Chorus
e|---------------------|    |-----------------------------------------|
B|---------------------|    |-----------------------------------------|
G|-5-5-5-5-x-----------|    |-5-5-5-5-5-5-5-5-------------------------|
D|-5-5-5-5-x-6-6-6-6-6-| x3 |-5-5-5-5-5-5-5-5-------------------------|
A|-3-3-3-3-x-6-6-6-6-6-|    |-3-3-3-3-3-3-3-3-------------------------|
E|-----------4-4-4-4-4-|    |-----------------------------------------|

Bridge
e|--------------------------------------------------------------------|
B|--------------------------------------------------------------------|
G|-5-5--5-5--5-5--5-5--5-5--5-5--5-5--5-5--5-5--5-5--5-5--5-5---------|
D|-5-5--5-5--5-5--5-5--5-5--5-5--5-5--5-5--5-5--5-5--5-5--5-5---------|
A|-3-3--3-3--3-3--3-3--3-3--3-3--3-3--3-3--3-3--3-3--3-3--3-3---------|
E|--------------------------------------------------------------------|

Order

Intro
Verse x4
Chorus x2
Intro
Verse x4
Chorus x2
Intro
Bridge
Intro x2 (while lead guitar plays a solo)
Chorus
Intro
End with part of the bridge


--------------------------------------------------------------------------
Green Day Knowledge
--------------------------------------------------------------------------
If you can't pick up the rhythm straight away stick to it and you'll pick it up.

Intro
E|--------------------------------------------------|
B|--------------------------------------------------|
G|--9---9-9---9-9---9-9----7-7-7-7------------------|
D|--9-9-9-9-9-9-9-9-9-9-9--7-7-7-7-x-7-7-7-7-7-7----|
A|--7-7-7-7-7-7-7-7-7-7-7--5-5-5-5-x-7-7-7-7-7-7----|
E|---------------------------------x-5-5-5-5-5-5----|
PM    *     *     *     *                           
                                                    
E|--------------------------------------------------|
B|--------------------------------------------------|
G|--9---9-9---9-9---9-9----7-7-7-7------------------|
D|--9-9-9-9-9-9-9-9-9-9-9--7-7-7-7-x-7--------------|
A|--7-7-7-7-7-7-7-7-7-7-7--5-5-5-5-x-7--------------|
E|---------------------------------x-5--------------|
PM    *     *     *     *

E|--------------------------------------------------|
B|--------------------------------------------------|
G|--9---9-9---9-9---9-9----7-7-7-7--7-7-7-7---------|
D|--9-9-9-9-9-9-9-9-9-9-9--7-7-7-7--7-7-7-7---------|
A|--7-7-7-7-7-7-7-7-7-7-7--5-5-5-5--5-5-5-5---------|
E|--------------------------------------------------|
PM    *     *     *     *

Main Riff
E|--------------------------------------------------|
B|--------------------------------------------------|
G|--9---9-9---9-9---9-9----7-7-7-7------------------|
D|--9-9-9-9-9-9-9-9-9-9-9--7-7-7-7-x-7-7-7-7-7-7----|
A|--7-7-7-7-7-7-7-7-7-7-7--5-5-5-5-x-7-7-7-7-7-7----|
E|---------------------------------x-5-5-5-5-5-5----|
PM    *     *     *     *                           

Outro (# means stop chord dead)
E|--------------------------------------------------|
B|--------------------------------------------------|
G|--9---9-9-----------------------------------------|
D|--9-9-9-9-9—(piano bit)--(Drum bit)---7#----------|
A|--7-7-7-7-7---------------------------7#----------|
E|--------------------------------------5#----------|
PM    *     *  

Order

Intro
Main Riff x8
Solo (sorry cudnt work it out)
Main Riff x5
Outro


--------------------------------------------------------------------------
Green Day 1,000 hours
--------------------------------------------------------------------------
This verse is just one chord played a lot because lead is play arpeggios
In the background

Verse
e|--------------------------------------------------------------------|
B|--------------------------------------------------------------------|
G|--------------------------------------------------------------------|
D|-7-7--7--7-7-7--7-7--7--7-7-7---------------------------------------|
A|-7-7--7--7-7-7--7-7--7--7-7-7---------------------------------------|
E|-5-5--5--5-5-5--5-5--5--5-5-5---------------------------------------|

Chorus
e|------------------|-------------------------------------------------|
B|------------------|-------------------------------------------------|
G|------------------|-------------------------------------------------|
D|-4-4-4-4--5-5-5-5-|-4-4-4-4--5-5-5-5--------------------------------|
A|-4-4-4-4--5-5-5-5-|-4-4-4-4--5-5-5-5--------------------------------|
E|-2-2-2-2--3-3-3-3-|-2-2-2-2--3-3-3-3--------------------------------|

Outro
e|--------------------------------------------------------------------|
B|--------------------------------------------------------------------|
G|--------------------------------------------------------------------|
D|-4-x-5---4-x-5---4-x-5---4-x-5~~~~----------------------------------|
A|-4-x-5---4-x-5---4-x-5---4-x-5~~~~----------------------------------|
E|-2-x-3---2-x-3---2-x-3---2-x-3~~~~----------------------------------|

Order

Verse (just play a lot) easy song!
Chorus x2
Verse (just play a lot)
Chorus x2
Verse (play a lot - lead guitar solo played somewhere here also)
Outro

--------------------------------------------------------------------------
Green Day Dry Ice
--------------------------------------------------------------------------

Intro 
e|---------------|---------------|
B|---------------|---------------|
G|---------------|---------------|
D|-6--(lead bit)-|-6--(lead bit)-| x2
A|-6-------------|-6-------------|
E|-4-------------|-4-------------|

Lead bit
e|---------------|
B|---------------|
G|------5-6-5-7--|
D|---6-----------|
A|-6-------------|
E|---------------|

Verse
e|---------------------------------------|---------------------------------------|
B|---------------------------------------|---------------------------------------|
G|----------6-6-6-6-6-7-7-7-7--9-9-9-9-9-|----------6-6-6-6-6-7-7-7-7--1-1-1-1-1-|
D|-7-7-7-7--6-6-6-6-6-7-7-7-7--9-9-9-9-9-|-7-7-7-7--6-6-6-6-6-7-7-7-7--2-2-2-2-2-|
A|-7-7-7-7--4-4-4-4-4-5-5-5-5--7-7-7-7-7-|-7-7-7-7--4-4-4-4-4-5-5-5-5--2-2-2-2-2-|
E|-5-5-5-5-------------------------------|-5-5-5-5---------------------0-0-0-0-0-|

Chorus
e|------------------------------------------------------------------------------|
B|------------------------------------------------------------------------------|
G|-7-7-7-7----------------7-7-7-7----------------7-7-7-7---------------7-7-7-7--|
D|-7-7-7-7--7-7-7-7-7-7---7-7-7-7--7-7-7-7-7-7---7-7-7-7--7-7-7-7-7-7--7-7-7-7--|
A|-5-5-5-5--7-7-7-7-7-7---5-5-5-5--7-7-7-7-7-7---5-5-5-5--7-7-7-7-7-7--5-5-5-5--|
E|----------5-5-5-5-5-5------------5-5-5-5-5-5------------5-5-5-5-5-5-----------|

e|--------------|
B|--------------|
G|-9-9-9-9-9-9--|
D|-9-9-9-9-9-9--|
A|-7-7-7-7-7-7--|
E|--------------|

Bridge
e|-----------------------------------------------|
B|-----------------------3-3-3-3-3-3-3-3-3-3-3-3-|
G|-2-2-2-2---------------2-2-2-2-2-2-2-2-2-2-2-2-|
D|-2-2-2-2--3-3-3-3-3-3--0-0-0-0-0-0-0-0-0-0-0-0-|
A|-0-0-0-0--3-3-3-3-3-3--------------------------|
E|----------1-1-1-1-1-1--------------------------|

Solo rhythm (rhythm guitar plays this while lead plays a kick ass solo)
e|---------------------------------------|---------------------------------------|
B|---------------------------------------|---------------------------------------|
G|----------6-6-6-6-6--7-7-7-7-7-7-7-7-7-|----------6-6-6-6-6-7-7-7-7--7-7-7-7-7-|
D|-7-7-7-7--6-6-6-6-6--7-7-7-7-7-7-7-7-7-|-7-7-7-7--6-6-6-6-6-7-7-7-7--7-7-7-7-7-|
A|-7-7-7-7--4-4-4-4-4--5-5-5-5-5-5-5-5-5-|-7-7-7-7--4-4-4-4-4-5-5-5-5--5-5-5-5-5-|
E|-5-5-5-5-------------------------------|-5-5-5-5-------------------------------|


Order

Intro
Verse x2
Chorus
Verse x3
Chorus x2
Bridge x4
Solo x2
Intro
Verse x2
Chorus x2
Bridge x4


--------------------------------------------------------------------------
Green Day Only of you
--------------------------------------------------------------------------
Tuning standard

Intro/chorus
e|--------------------------|--------------------------|
B|--------------------------|--------------------------|
G|-----7-7------------------|-----7-7------------------|
D|-3-3-7-7--5-5-5-5-5-5-5-5-|-3-3-7-7--5-5-5-5-5-5-5-5-|
A|-3-3-5-5--5-5-5-5-5-5-5-5-|-3-3-5-5--5-5-5-5-5-5-5-5-|
E|-1-1------3-3-3-3-3-3-3-3-|-1-1------3-3-3-3-3-3-3-3-|

Verse 
e|-----------------------------------------------------|
B|-----------------------------------------------------|
G|-4-4-4-4-4------------------6-6-6-6------------------|
D|-4-4-4-4-4--4-4-4-4-4-4-4---6-6-6-6--6-6-6-6-6-6-6---|
A|-2-2-2-2-2--4-4-4-4-4-4-4---4-4-4-4--6-6-6-6-6-6-6---|
E|------------2-2-2-2-2-2-2------------4-4-4-4-4-4-4---|

Bridge
e|-----------------------------------------------------|
B|-----------------------------------------------------|
G|-4-x-x-4-4----------------------4---4---4-----4-4----|
D|-4-x-x-4-4--x-x-4-4-x-x-4-4---4-4-4-4-4-4-4-4-4-4----|
A|-2-x-x-2-2--x-x-4-4-x-x-4-4---4-2-4-2-4-2-4-4-2-2----|
E|------------x-x-2-2-x-x-2-2---2---2---2---2-2--------|

Solo rhythm (play this while lead is playing a solo)
e|-----------------------------------------------------|
B|-----------------------------------------------------|
G|-4-x-4-x-4-x-4---------------------------------------|
D|-4-x-4-x-4-x-4---------------------------------------|
A|-2-x-2-x-2-x-2---------------------------------------|
E|-----------------------------------------------------|

Order

Intro x2
Verse x6
Chorus x2
Verse x6
Chorus x2
Bridge x4
Solo rhythm (play a lot)
Verse x4



--------------------------------------------------------------------------
Green Day the one I want
--------------------------------------------------------------------------
Sorry I cudnt work this one out it sounds like a quite difficult PM and release
riff, almost like an early Basket Case. If any one has an accurate version of
this cud you please write in the comments thingy, thanks!



--------------------------------------------------------------------------
Green Day I want to be alone
--------------------------------------------------------------------------

Intro/verse
e|-----------------------------------------------------------------------|
B|-----------------------------------------------------------------------|
G|----------------------------0-------0-------0-------0-------0-------0--|
D|---7--5b--7--5b--7--5b----0---0---0---0---0---0---0---0---0---0---0---0|
A|-5--5---5--5---5--5-----5-------3-------5-------3-------5-------3------|
E|-----------------------------------------------------------------------|
PM *****  *****  ****  

Chorus
e|------------------------------------------|
B|------------------------------------------|
G|-----------------------7-7-7-7--4-4-4-4-4-|
D|-5-5-5-5--7-7-7-7-7-7--7-7-7-7--4-4-4-4-4-|
A|-5-5-5-5--7-7-7-7-7-7--5-5-5-5--2-2-2-2-2-|
E|-3-3-3-3--5-5-5-5-5-5---------------------|

Pre solo (* means harmonics)
e|-------------------------------------------------------------------------|
B|-------------------------------------------------------------------------|
G|------------------------------0-------0-------0-------0-------0-------0--|
D|--7*--5*--7*--5*--7*--5*----0---0---0---0---0---0---0---0---0---0---0---0|
A|5*--5*--5*--5*--5*--5*----5-------3-------5-------3-------5-------3------|
E|-------------------------------------------------------------------------|

Order

Intro/verse x6
Chorus x4 (on the last time you play this don't play the last 8 chords)
Verse x5
Chorus x4 (on the last time you play this don't play the last 8 chords)
Verse x2
Pre solo x2
Solo (there is no rhythm guitar behind the solo)
Intro/verse x6
Chorus x4 (on the last time you play this don't play the last 8 chords)
Verse x4



There it is 1039 and also every single green day album, tabbed out for you - by me 
I am submitting this at the same time as my shenanigans album tab so that means all
nine albums tabbed out on ultimate guitar, by me! I hope you like them all and please
rate this thanks guys. Sorry about no lyrics, but you can get them from a lyrics search
engine like www.lyrics.com and im damn sure you can get them off www.greendayauthority.com
as well
comments
print report bad tab
6 comments total. Showing first comments.
0 reply
offspring_punk wrote on March 7 2005, 12:00 am

i dont know which tab is worse..this one or the other one. learn how to tab a song before you try and do something like this. YOU have practically no solos as well. and once again...try different tunings for songs for christ sake. horrible

0 reply
Liam wrote on March 15 2005, 12:00 am

fair enough and please could you (offspring_punk) leave me a list of all the tabs you hav submitted on this website. thank you

0 reply
sittingonastar wrote on January 7 2006, 12:06 pm

no solos... but it was good overall

I want to post or [tab]
guest
You may want to rate the tab now too:
select rating
Please do not post tabs as comments. Select "correction" instead!